Pearl Jam - Even Flow Chords & Tabs

 

Even Flow Chords & Tabs

Pearl Jam Chords & Tabs

Version: 9 Type: Tab 0 ratings
1 star 2 stars 3 stars 4 stars 5 stars
comments

Even Flow Tab

   
-----------------------------------------------------------------------
			     Even Flow - Pearl Jam
-----------------------------------------------------------------------
Tabbed by: Harmonius
Email: MoonlightEpidemic@gmail.com

Tuning: Drop D [EBGDAD]

K, this is the Even Flow Solo I tabbed out from the video - it's not the same as the
one on the Ten album. It's about as close as I can get it - there may be a few minor
mistakes or missing notes.

e|-----------------------------------------10-----------10-----------------|
B|-10-13--------------------------------10----13p12-13^----13p12-----------|
G|-12^--12-12^12p10---10~~-10h12-10-12^--------------------------12^r10-12^|
D|-------------------12----10h12-------------------------------------------|
A|-------------------------------------------------------------------------|
E|-------------------------------------------------------------------------|

e|-------------------------------------------------------------------------|
B|-------------------------------------------------------------------------|
G|-12-10-------------------------------------------------------------------|
D|-------12-11-10----------------------------------------------------------|
A|----------------12-11-10-8----8--10^-------------------------------------|
E|---------------------------10--------------------------------------------|

                        Triplets
[ Tab from: http://www.guitartabs.cc/tabs/p/pearl_jam/even_flow_tab_ver_9.html ]
e|-----15^r-15^r-15^r-15^13---------------------------------10-----10------|
B|--------------------------15~-----------------------------10-----10------|
G|-xxx-----------------------------10----10-12p10----10~-12^---12^---------|
D|-xxx-------------------------/12----12----------12-----------------------|
A|-xxx---------------------------------------------------------------------|
E|-------------------------------------------------------------------------|

                                         (Repeat as many times as necessary)

e|-10----------------------------------------------------------------------|
B|-13^-13p10---------------------------------------------------------------|
G|-----------10h12-------10---10/------------------------------------------|
D|-----------10h12-10h12----12---------------------------------------------|
A|-------------------------------------------------------------------------|
E|-------------------------------------------------------------------------|


Sometimes on the early live performances, Mike likes to do this
e|-xxxx-101010-xxxx-10101010------------------------------------------------|
B|-xxxx-101010-xxxx-10101010------------------------------------------------|
G|-xxxx-101010-xxxx-10101010------------------------------------------------|
D|-xxxx-101010-xxxx-10101010------------------------------------------------|
A|--------------------------------------------------------------------------|
E|--------------------------------------------------------------------------|
(Repeat as many times you want and use a lot of wah at this stage)

| /  slide up
|   slide down
| h  hammer-on
| p  pull-off
| ~  vibrato
| +  harmonic
| x  Mute note
| ^  Bend

=============================================================================

Any Questions, e-mail me: MoonlightEpidemic@gmail.com or visit the Seattle Community 
for Free mp3-based rare Grunge albums/video and grunge forums.
Comments