Pearl Jam - Even Flow Chords & Tabs

 

Even Flow Chords & Tabs

Pearl Jam Chords & Tabs

Version: 6 Type: Tab 0 ratings
1 star 2 stars 3 stars 4 stars 5 stars
comments

Even Flow Tab

PEARL JAM
EVEN FLOW
TEN(1991)
STANDARD TUNING

INTRO/VERSES
Guitar 1
e---------------------------------------------------
B--------------------------------------------------- 
G-------------7-7-7-7-7-7---------------7-7-7-7-7-7-
D-------7/-10-7-7-7-7-7-7--------7/--10-7-7-7-7-7-7-
A-------7/-10-5-5-5-5-5-5--------7/--10-5-5-5-5-5-5-
E--15/--5/-8---------------------5/--8--------------
Guitar 2                                                   REPEAT 2X
e---------------------------------------------------
B---------------------------------------------------
G------------------------2-0---------5--7-----------
D----------------------------3-0-3/7-5--7-----------
A------------------------------------3--5-----------
E---------------------------------------------------

THEN THROW IN THIS LEAD FILL FOR GUITAR 2 BEFORE THE VERSE STARTS

|---------------------------
|---------3-1---------------
|-2-0---------2-0-----------
|-----3-0---------3-0-3/5-0~
|---------------------------
|---------------------------
[ Tab from: http://www.guitartabs.cc/tabs/p/pearl_jam/even_flow_tab_ver_6.html ]
CHORUS

Guitar 1
|-------------------------------------------
|-------------------------------------------
|--7--3~------7--5~------7--3~------7--5~---
|--7--3~------7--5~------7--3~------7--5~---
|--5--1~------5--3~------5--1~------5--3~---
|-------------------------------------------

Guitar 2
|------------------------------------
|------------------------------------
|--12-11--------------12-11----------
|--------12-8(~)------------12-10(~)-
|------------------------------------
|------------------------------------

THEN LATER COMES:

Guitar 1 & 2
|--------------------------------
|--------------------------------
|--5-5-5-5-5-5-7-7--7-7--7-7-7-7-
|--5-5-5-5-5-5-7-7--7-7--7-7-7-7-
|--3-3-3-3-3-3-5-5--5-5--5-5-5-5-
|--------------------------------

IF ANYONE I COULD FIGURE OUT THE SOLO THEY ARE VERY MISTAKEN. I SAW MIKE PLAY AT
A CONCERT IN KANSAS CITY. HE PLAYED IT BEHIND HIS HEAD AND IN A GUY'S FACE FOR
TWO AND A HALF MINUTES; I COULDN'T SEE THE FRETS(EVEN IF I COULD IT WOULDN'T HAVE
MADE A DIFFERENCE.
Comments