Pearl Jam - Even Flow Chords & Tabs

 

Even Flow Chords & Tabs

Pearl Jam Chords & Tabs

Version: 1 Type: Bass Tab 0 ratings
1 star 2 stars 3 stars 4 stars 5 stars
comments

Even Flow Bass Tab

Bass Tab for Even Flow by Pearl Jam                                                         

by Andrew Johnson (andyjay@ihug.co.nz)


I noticed the bass tab for Even Flow at the tab archive, and have a different version. 
You can deceide for yourself which one you like better

This one is in dropped D tuning.  All the parts of the song are here (I think), 
just repeat with minor variations as you want to.  


Intro/Verse
G-||-----------------------------||
D-||-----------------------------||
A-||----------5-----5------------||
D-||-0--5H-7-----0-----0--0------||
                                                                                

Fill 1                             	Harm.           
G----------------------------------------------
D---------------------------------------5-(/)--
A--5--3---------------------------------5-(/)--
D--------6--5--3--0--3--5----0-----------------
                                                                                
[ Tab from: http://www.guitartabs.cc/tabs/p/pearl_jam/even_flow_btab.html ]
Chorus            
G-||-----7--------3-----------------------7--------5---------------------||
D-||---------------------------------------------------------------------||
A-||-5-----5--1-----1--1--1--1--1--1--5-----5--3-----3--3--3--3--3--3----||
D-||---------------------------------------------------------------------||

                                                                                
Interlude (at the end of the 2nd & 3rd chorus's)                   
G--------------------------------------------------------------
D--------------------------------------------------------------
A--5--5--3--3--3--3--3--3----5--5--3--3--3--3--3----5--5--3\---
D--------------------------------------------------------------
                                                                              
Lead Break 
G-||--------------------------------------------||
D-||--------------------------------------------||
A-||-3--3--3--3--3--3--4--5--5--5--5--5--5--0---||
D-||--------------------------------------------||


Not all variations have been included here (it would take up too much time and space)
Just listen to the CD and you should be easily be able to piece it together.


Any comments welcome.

Comments