Pearl Jam - Elderly Woman Behind The Counter Chords & Tabs

 

Elderly Woman Behind The Counter Chords & Tabs

Pearl Jam Chords & Tabs

Version: 1 Type: Tab 0 ratings
1 star 2 stars 3 stars 4 stars 5 stars
comments

Elderly Woman Behind The Counter Tab

   
-----------------------------------------------------------------------------
        Elderly Woman Behind The Counter In A Small Town - Pearl Jam
-----------------------------------------------------------------------------

Tabbed by:BlazinBassst
Email:

Tuning:Standard
Time Signiture:6/8

Here are the chords

    D Cadd9 G/B  G   C   A Emin
e|--2---3----3---3---0---0---0--|
B|--3---3----3---3---1---2---0--|
G|--2---0----0---0---0---2---0--|
D|--0---0----0---0---2---2---2--|
A|------3----2---2---3---0---2--|
E|---------------3-----------0--|
[ Tab from: http://www.guitartabs.cc/tabs/p/pearl_jam/elderly_woman_behind_the_counter_tab.html ]
This shows the chord changes but not strumming. It should be easy enough to figure out.
Just remember its in 6/8 time so theres 6 down strokes and 6 upstrokes for each measure.

Verse
e|-2---3---|-3-------|-3-------|-3---3---|
B|-3---3---|-3-------|-3-------|-3---3---|
G|-2---0---|-0-------|-0-------|-0---0---|
D|-0---0---|-0-------|-0-------|-0---0---|
A|-----3---|-2-------|-3-------|-2---2---|
E|---------|---------|---------|-----3---|

Chorus
e|-0-------|-0-------|-0-------|-0-------|-0-------|-0-------|-0-------|-0-------|
B|-1-------|-2-------|-1-------|-2-------|-1-------|-2-------|-0-------|-0-------|
G|-0-------|-2-------|-0-------|-2-------|-0-------|-2-------|-0-------|-0-------|
D|-2-------|-2-------|-2-------|-2-------|-2-------|-2-------|-2-------|-0-------|
A|-3-------|-0-------|-3-------|-0-------|-3-------|-0-------|-2-------|-2-------|
E|---------|---------|---------|---------|---------|---------|-0-------|-0-------|
Comments