Pearl Jam - Do The Evolution Chords & Tabs

 

Do The Evolution Chords & Tabs

Pearl Jam Chords & Tabs

Version: 1 Type: Tab 0 ratings
1 star 2 stars 3 stars 4 stars 5 stars
comments

Do The Evolution Tab

Man.. even the guy who complained about the first submission of this song
being wrong was only almost right.
This is the real way to play this song.


Many  thanks to Evan and Co. for teaching me this song.


-|--------------------|-----------------|-----------------|-----------------|-
-|--------------------|-----------------|-----------------|-----------------|-
-|-x--0-------------8-|---0-----------8-|---0-----------8-|---0-----------8-|-
-|-x--0-------------8-|---0-----------8-|---0-----------8-|---0-----------8-|-
-|----x---8----8-10---|---x-8----8-10---|---x-8----8-10---|---x-8----8-10---|-
-|---10-----10--------|-/10---10--------|-/10---10--------|-/10---10--------|-
Main riff Over and over

-|--------------------------------|-
-|--------------------------------|-
-|--3--3--3--3--3--3--2--2-2--1-1-|-
-|--2--2--2--2--2--2--1--1-1--0-0-|-
-|--7--7--7--7--7--7--6--6-6--5-5-|-
-|--8--8--8--8--8--8--7--7-7--6-6-|-
 Chorus G.1.play strings 5,6/G.2.play 3,4.                                           

[ Tab from: http://www.guitartabs.cc/tabs/p/pearl_jam/do_the_evolution_tab.html ]
-|---------------------------------------------------------------|------------
-|---------------------------------------------------------------|------------
-|---------------------------------------------------------------|------------
-|-3b-0-0--0--0-3b-0-0--0--0-2b-0---------0-2---------3b-0-2b-0--|------------
-|--------------------------------3--3--3-----3-1--0-------------|------------
-|---------------------------------------------------------------|------------
 Bridge, guitar 1

-|-0---0------0------0-----|---------------------------------|----------------
-|-3-----3------3------3---|---/15--15-----------------------|----------------
-|-2-------2------2------2-|-2-/14--14--14--14--14--14\------|----------------
-|-0-----------------------|-0----------12--12--12--12\------|----------------
-|-------------------------|-0-------------------------------|----------------
-|-------------------------|---------------------------------|----------------
 Guitar 1  Guitar 2    

-|-----------------------------------|-0---0------0------0-----|--------------
-|----15------15--15----15----15-15\-|-3-----3------3------3---|--------------
-|-------------------16----15----14\-|-2-------2------2------2-|--------------
-|-----------------------------------|-0-----------------------|--------------
-|---------15------------------------|-------------------------|--------------
-|-----------------------------------|-------------------------|--------------
 "Hallelujah..."                                                              

I'm not gonna tab the solo.  Improvisation is the key.  Pearl Jam never
memorizes solos, neither should we memorize Pearl Jam solos :)                                     

Comments