Pearl Jam - Do The Evolution Chords & Tabs

 

Do The Evolution Chords & Tabs

Pearl Jam Chords & Tabs

Version: 1 Type: Bass Tab 0 ratings
1 star 2 stars 3 stars 4 stars 5 stars
comments

Do The Evolution Bass Tab

   
PEARL JAM "DO THE EVOLUTION" -BASS TAB
--------------------

Tune normal  e a d g


Main riff
|------------------|
|------------------|
|----8----8----10--|
|-10---10---10-----|

This riff is repeated up until the chorus
Chorus: "it's evolution baby"
|-----------------------|
|-----------------------|
|-10-10-10-10-9-9-8-8-8-|
|-----------------------|


Interlude:  "admire me" bit
|----------------------|----------------------------|
|----------------------|----------------------------|
|----------------------|----------------------------|
|-10-10-10-10-10-10-10-|-10-10-10-10-10-10-10-10-10-|

|---------------------|
|---------------------|
|-8-8-8-8-8-----------|
|-----------5h7-7-5-5-|

|----------------------|----------------------------|
|----------------------|----------------------------|
|----------------------|----------------------------|
|-10-10-10-10-10-10-10-|-10-10-10-10-10-10-10-10-10-|

|----------------------|----------------------------|
|----------------------|----------------------------|
|----------------------|----------------------------|
|-10-10-10-10-10-10-10-|-10-10-10-10-10-10-10-10-10-|
[ Tab from: http://www.guitartabs.cc/tabs/p/pearl_jam/do_the_evolution_btab.html ]
|-----------------|---------------------|
|-----------------|---------------------|
|-8-8-8-8-8-8-8-8-|-7-7-7-7-7-7-7-5-5-5-|
|-----------------|---------------------|

|---------|--------------------|
|---------|--------7---7-------|
|---------|------8---8---8/10--|
|-8h10~~~-|-8h10---------------|

The riff is repeated with the chorus for the secord verse bit

Second interlude
|----------------------|----------------------------|
|----------------------|----------------------------|
|----------------------|----------------------------|
|-10-10-10-10-10-10-10-|-10-10-10-10-10-10-10-10-10-|

|---------------------|
|---------------------|
|-8-8-8-8-8-----------|
|-----------5h7-7-5-5-|

|-------------------------|---------------------|
|-------------------------|---------------------|
|-------------------------|-8-8-8-8-10-10-10-10-|
|-10-10-10-10-10-10-10-10-|---------------------|

|-------------------------|
|-------------------------|
|-------------12-12-12-12-|
|-10-10-10-10-------------|

 h = hammeron
 p = pulloff
 ~ = vibrato
 / = slide up
 \ = slide down
(X)= hold note (let ring)

Tabbed by Mark Linwood

Hint suggesstions or comments to (Rlinwood@powerup.com.au)
I will reply to all emails
Comments