Pearl Jam - Dirty Frank Chords & Tabs

 

Dirty Frank Chords & Tabs

Pearl Jam Chords & Tabs

Version: 1 Type: Bass Tab 0 ratings
1 star 2 stars 3 stars 4 stars 5 stars
comments

Dirty Frank Bass Tab

Dirty Frank by Pearl Jam
from PePPeRs o0@aol.com

This is one of Pearl Jam's best songs

intro
g--19\20--19/20\19---|--12-------------------14---------------------|
d---------------------------|--------14---12-------------12---------------|
a---------------------------|--------------------14------------14--12-----|
e---------------------------|-------------------------------------------------
|
[ Tab from: http://www.guitartabs.cc/tabs/p/pearl_jam/dirty_frank_btab.html ]
Main Bassline      
g--------------|------------------------------|
d-------5-----|------------------------------|
a--7------7--|---7---5-----5--7--5-------| 
e--------------|-----------7-----------------|
                     /\ this part gets varied by Ament.
                         start it off on any E and play it the same
                          as it is there.

There more little things to this song , but im too lazy to figure them out.
from PePPeRs o0@aol.com




Comments