Pearl Jam - Daughter Chords & Tabs

 

Daughter Chords & Tabs

Pearl Jam Chords & Tabs

Version: 3 Type: Tab 0 ratings
1 star 2 stars 3 stars 4 stars 5 stars
comments

Daughter Tab

   
 100% correct version of "daughter" for a change..... Off VS., P.J.'s second album.....

                         Intro-
-------------0-----------------------------------------|
-----------0---0---------------------------------------|              Tuning-  low E UP to G
--------0--------0-------------------------------------|                       A DOWN to SAME G
-----7-------------------------------------------------|                       D stays the same
---5---------------------------------------------------|                       G stays the same
-------------------------------------------------------|                       B stays the same
                                                      E DOWN to D

                                                   Hence, G G D G B D


Verse/Chorus  (0:11), (1:02), (2:35)

-0-0--0--0------0---0---0-0-0--0----|-0--0----0--0-0-0-0--------------------|
-0-0--0--0------0---0---0-0-0--0----|-0--0----0--0-0-0-0--------------------|
-0-0--0--0---/--0---0---0-0-0--0----|-0--0--/-0--0-0-0-0--------------------|
-0-0--0--7------9---7---9-9-9--9----|-0--7----9--7-7-7-7--------------------|
-0-0--0--5------7---5---7-7-7--7----|-0--5----7--5-5-5-5--------------------|
-0-0--0--0------0---0---0-0-0--0----|-0--0----0--0-0-0-0--------------------|
[ Tab from: http://www.guitartabs.cc/tabs/p/pearl_jam/daughter_tab_ver_3.html ]
-0-0----0--0-0-0-0-0-0-0-0-0-0-0----0-----------------------|
-0-0----0--0-0-0-0-0-0-0-0-0-0-0----0-----------------------|
-0-0-/--0--0-0-0-0-0-0-0-0-0-0-0--/-0-----------------------|     x4
-0-7----9--7-7-7-7-7-7-7-7-7-7-7----9-----------------------|
-0-5----7--5-5-5-5-5-5-5-5-5-5-5----7-----------------------|  (Use for
-0-0----0--0-0-0-0-0-0-0-0-0-0-0----0-----------------------|  overlapping
                                                              on the solo
                                                              also)

Bridge: (1:23), (2:48)

-0--0--0--0--0--0---0--0--0--0--0--0-----|
-0--0--0--0--0--0---0--0--0--0--0--0-----|
-0--0--0--0--0--0---0--0--0--0--0--0-----|      x 2
-12-12-12-12-12-12--11-11-11-11-11-11----|
-9--9--9--9--9--9---9--9--9--9--9--9-----|
-0--0--0--0--0--0---0--0--0--0--0--0-----|

Lyrics:
You guys ready?
Alone, listless, breakfast table in an otherwise empty room
Young girl, violins, center of her own attention
Mother reads aloud, child, tries to understand it, tries to make her proud,
The shades go down it's in her head,
painted room, can't deny, there's something wrong
                                 Chorus
Don't call me daughter, not fit to, the picture kept, will remind me
Don't call me daughter, not fit to, the picture kept, will remind me
Don't call me........
                                 Bridge
She holds the hand... that holds her down...
She will... rise above...............    Ooooooooooooh Hooooooooooo.......
                                 Chorus
Don't call me daughter, not fit to, the picture kept, will remind me
Don't call me daughter, not fit to, the picture kept, will remind me
Don't call me daughter, not fit to, the picture kept, will remind me
Don't call me daughter, not fit to me, the picture kept, will remind me
Don't call me........................
                                 Bridge
..................the shades go down...the shades go down..... the shades go....go.....go....
Comments