Pearl Jam - Crazy Mary Chords & Tabs

 

Crazy Mary Chords & Tabs

Pearl Jam Chords & Tabs

Version: 2 Type: Bass Tab 0 ratings
1 star 2 stars 3 stars 4 stars 5 stars
comments

Crazy Mary Bass Tab

Crazy Mary
Pearl Jam
Tabbed by Nick Key (nkey@ionet.net)

Jeff plays it on electric upright, but I tabbed it out for electric.
(Which means I just made rhythmic choices).

Come in after first verse:

Fig. 1 3x
--------------------|
--------------------| 
-2-2--2-2-----------|
-----------3-3--3-3-|

Then:
                     ^Play this when Ed sings "L-O-I..."
-------------------------|
-------------------------| 
-5-5--5-5------------2---|
-----------3-3--3-3-----3|
                        ^and this after "Allowed"

Play verse 2x, then:

Chorus:
"Take a bottle..."
Fig. 2 - 3x
--------------------|
--------------------| 
-2-2--0-0-----------|
-----------3-3--5-5-|
[ Tab from: http://www.guitartabs.cc/tabs/p/pearl_jam/crazy_mary_btab_ver_2.html ]
Rest during the first part of the next verse, then:

               ^Play this at "Looked Down"
------------------------------------
------------------------------------   
-2-------------2---------------2----
--------------------2----0----------
		    ^Before "Terrible Thought"
 
2x             2x
------------| |--------| |-----------------------|
------------| |--------| |-----------------------|
-2-2/7-7\2--| |-2-2-2--| |-----------------------|
------------| |--------| |-5-5-5-0-0-0--3-3-3-2--|

Tacet until "That which you fear..."

--------------------------------------|
--------------------------------------| 
--------------------------------------|
-5-5-5-5--3-3--3-3--2-2-2-2--3-3--3-3-|

Play fig. 2 3x.  Then play fig. 1 until end.  End on B
Comments