Pearl Jam - Bushleager Chords & Tabs

 

Bushleager Chords & Tabs

Pearl Jam Chords & Tabs

Version: 1 Type: Tab 0 ratings
1 star 2 stars 3 stars 4 stars 5 stars
comments

Bushleager Tab

Artist: pearl jam
Title: bushleaguer
Album: riot act
Transcribed by: rafael salazar


intro/chorus/verse:
-2-2-2-2--2-2--3-3-3-3--2-2--------4--4---7--7---2----------------------------|
-3-3-3-3--2-2--3-3-3-3--2-2--------5--5---7--7---3----------------------------|
-4-4-4-4--3-3--4-4-4-4--3-3--------6--6---9--9---4----------------------------|
-4-4-4-4--4-4--5-5-5-5--4-4--------6--6---9--9---4----------------------------|
-2-2-2-2--4-4--5-5-5-5--4-4--------4--4---7--6---2----------------------------|
----------2-2--3-3-3-3--2-2---------------0-----------------------------------|

[ Tab from: http://www.guitartabs.cc/tabs/p/pearl_jam/bushleager_tab.html ]
------------------------------------------------------------------------------|
-15br-15br14-15v-14-15-15p14p12-12-14-14br------------------------------------|
------------------------------------------------------------------------------|
------------------------------------------------------------------------------|
------------------------------------------------------------------------------|
------------------------------------------------------------------------------|
                or something like that

-0--0----0--0--0----------------------------|---------------------------------|
-0--0----0--0--4----------------------------|---------------------------------|
-8--9----4--4--2----------------------------|-----12*-------------------------|
-9--7--4-6--6--4----------------------------|-----12*-------------------------|
--------------------------------------------|---------------------------------|
--------------------------------------------|---------------------------------|
                                                   at the end..

------------------------------------------------------------------------------|
------------------------------------------------------------------------------|
--7----7---9-9--9--9-7--------------------------------------------------------|
--7----7---9-9--9--9-7--------------------------------------------------------|
--5----5---7-7--7--7-5--------------------------------------------------------|
------------------------------------------------------------------------------|
  blackout weaves  ....
Comments