Pearl Jam - Black Lead Chords & Tabs

 

Black Lead Chords & Tabs

Pearl Jam Chords & Tabs

Version: 1 Type: Tab 1 rating
1 star 2 stars 3 stars 4 stars 5 stars
comments

Black Lead Tab

The tab for Black is great but the lead in the chorus has been left out
Here it is

-|----------------------------------------------------------------
-|-12h13p13----12-10---10h12p10--10---8---12h13-13h15-13-12h13-12-
-|-12----------12-11---11--------11---9---------------------------
-|-12-------12-12-12---12--------12--10---------------------------
-|----------------------------------------------------------------
-|----------------------------------------------------------------
[ Tab from: http://www.guitartabs.cc/tabs/p/pearl_jam/black_lead_tab.html ]
And on the part where he sings "tatooed all I see, all that I am, all I
I'll be" and the chords change from C to D instead of back to E

-|-------------------------------------------------------------etc.
-|-12h13p12----12--10--10h12p10--10---8----------------------10
-|-12----------12--11--11--------11---9--9-11-11b12r11-9-----11
-|-12-------12-12--12--12--------12--10----------------------12
-|-------------------------------------------------------------
-|-------------------------------------------------------------

Have fun.  Add a solo at the end with the Cmajor Pent. Box
Beautiful song
My favorite song from TEN
Comments