Pearl Jam - Better Man Chords & Tabs

 

Better Man Chords & Tabs

Pearl Jam Chords & Tabs

Version: 3 Type: Tab 0 ratings
1 star 2 stars 3 stars 4 stars 5 stars
comments

Better Man Tab

   
This is my first song, is a little bit hard to learn, but is the best 
chord of this songin internet.  this song is dedicated to all women 
that are everytime looking for a betterman, and don't see what have
on they side. 

chord made by Nano "Maximus" of Chile!! ( alejandromaxgon@udec.cl)



 PART A
   
e|------------------------------------------------------------------|
B|----3--0----------3--0-----------5--0-----------5-----5--5-----5--|
G|----------2-------------2--------------4-----------4--------4-----|
D|------------------------------------------------------------------|  X2  
A|------------------------------------------------------------------|
E|-2--2--------0h2--2---------0h4--4---------0h4--4-----------------|

      waiting       watching   the clock it's 4     o'clock it's got to stop
e|--------------------------------------------------------------------------|
B|----3--0----------3--0----------------------5-0-----------------5--0------|
G|----------2-------------2-----------------------4--------------------4----|
D|--------------------------------------------------------------------------|
A|--------------------------------------------------------------------------|
E|-2--2--------0h2--2-------------0h4---------4-------0h4---------4------0h2|

    Tell him        take no      more she    practices her     speech as
e|--------------------------------------------------------------------------|
B|---3---0----------3--0----------------------5-0---------------5-----0-----|
G|---------2--------------2-----------------------4---------------------4---|
D|--------------------------------------------------------------------------|
A|--------------------------------------------------------------------------|
E|---2---------0h2--2-------------0h4---------4--------0h4------4-----------|

    has he   opens the door       shee rolls over    Pretends to sleep as he
e|--------------------------------------------------------------------------|
B|-----------------------6-6h8---------------8-7-8-8----6---------6--------6|
G|----------------------------------------------------------------------5---|
D|--------------------------------------------------------------------------|
A|--------------------------------------------------------------------------|
E|----0h5----------------5-------------------7----------5-------------------|


   looks her over
e|----------------|
B|--8-------------|
G|----------------|
D|----------------|
A|----------------|
E|--7-------------|


PART B

    She lies and says she's in love with him   can't find a better man
   D
e|-3------2-----------------------3---2-----------2-----------------3--2---|
E|-3--------3------3---------------------3---3---------3------------------3|
G|-2----------2------------------------------------------------------------|
D|-0---------------0---------------------0---------------------------------|
A|-------------------------------------------------------------------------|
E|-------------------------------------------------------------------------|


     she  dreams in color she dreams in  red can't find a  better man
  D
e|---------2------------------3------2--------2-------------5--------5---5-|
E|--3------------3---------3-----------3--3---------3-------5----------5---|
G|------------------2-----------------------------------2---4--------------|
D|--0----------------------0--------------0------------------0-------------|
A|-------------------------------------------------------------------------|
E|-------------------------------------------------------------------------|

[ Tab from: http://www.guitartabs.cc/tabs/p/pearl_jam/better_man_tab_ver_3.html ]
       Can't find a   better man           Can't find a   better man 
e|--3---3---------3----5--------5---5---3---3---------3----5--------5---5--|
E|--3---------2--------5----------5-----3---------2--------5----------5----|
G|--2------------------4----------------2------------------4---------------|
D|--0------------------0----------------0------------------0---------------|
A|-------------------------------------------------------------------------|
E|-------------------------------------------------------------------------|



   D               A              oh oh ohoooh
e|--2--2---2-------0--0---0------------------------------------------------|
E|--3----3---3-----3----2---2----------------------------------------------|
G|--2--------------3--------------------------------2------2---------------|
D|--0--------------3-----------------------------0-----0-------------------|
A|-------------------------------------------------------------------------|
E|-------------------------------------------------------------------------|



e|------------------------------------------------------------------|
B|-------3--0----------5--0-------------5----5---5------5-----------|
G|-------------2-------------2------------4----------4--------4-----|
D|------------------------------------------------------------------|   
A|------------------------------------------------------------------|
E|--0h2--2---------0h4--4---------0h4-------------------------------|



Part C (this part is equal than the PART A)

      Talking      to   her   self  there's no one else who needs  to  know
e|-------------------------------------------------------------------------|
B|----3--0----------3--0---------------------5-0-----------------5--0------|
G|----------2-------------2----------------------4--------------------4----|
D|-------------------------------------------------------------------------|
A|-------------------------------------------------------------------------|
E|-2--2--------0h2--2----------0h4-----------4-------0h4---------4------0h2|


  she tell herself   ohh
e|--------------------------------------------------|
B|----3-----0----------3--0-----------------5-0-----|
G|-------------2-------------2-------------------4--|
D|--------------------------------------------------|
A|--------------------------------------------------|
E|-2--2-----------0h2--2-------------0h4------------|


  PART C
   D         A                 D
   Memories, back when she was smooth
                  A              G        D
   and strong and waiting for The world to come along
   G                                            D
   swears she knew it now she swears he's gone 


  (Chorus)
  D            A                       D                 A
  She lies and says she's in love with him, can't find a better man
  D                A                 D                 A
  She dreams in color, she dreams in red, can't find a better man
  D            A                    D                 A        
  She lies and says she still loves him, can't find a better man
  D                A                 D                 G
  She dreams in color, she dreams in red, can't find a better man
               D          A
  Can't find a better man
               D          A         G    G     G       D
  Can't find a better man

  D             A
  She loved him ooh, yeah. 
  D              A                 D
  She don't want to leave this way 
  D             A    
  She feeds him ooh, yeah. 
  D                    A          D
  That's why she'll be back again 
  D            A
  Can't find a better man ...  (X4)

  ( D A till the end)
Comments