Pearl Jam - Better Man Chords & Tabs

 

Better Man Chords & Tabs

Pearl Jam Chords & Tabs

Version: 2 Type: Bass Tab 0 ratings
1 star 2 stars 3 stars 4 stars 5 stars
comments

Better Man Bass Tab

the following song are by Pearl Jam off "Vitology". All songs tabbed by Zeekford

Better Man

fade in
G|---------------|
D|---------------|
A|---5-5\-1-3-3\-|
E|-3-------------|

Verse I
G|--------------------------|
D|--------------------------|
A|-0-5-5--0-5-5--0-7-7--0-7-|
E|--------------------------|

Chorus I
          3x
G|----------|----------|-------------|-------|
D|---------*|----------|-------------|-------|
A|-5\-0\---*|-5---0--0-|-5--5---0--0-|-------|
E|-------3/-|----------|-------------|-3-3-3-|
[ Tab from: http://www.guitartabs.cc/tabs/p/pearl_jam/better_man_btab_ver_2.html ]
Verse II- 1st half is like verse I              world to
G|--------------------------|-----------------|----------|
D|--------------------------|-----------------|----------|
A|-0--5-5-0-7-7-7-7-7-7-7-7-|-5-5-5-5-7-7-7-7-|--7-----5-|
E|--------------------------|-----------------|----------|

Chorus II
G|----------------------------|---------------------------|
D|----------------------------|---------------------------|
A|-5-5-5-5\-0-0-0-0\----------|-5-5-5-5--5-5-5-5--0-0-0-0-|
E|-------------------3-3-3-3/-|---------------------------|

Bridge
         3x
G|---------|-----------------------|
D|--------*|-----------------------|
A|-10-10\-*|-10-10-10-10-8-8-6-6-5-|
E|---------|-----------------------|

then chorus and a sliding outro

A|-5--/12--/17-||

================================================================================
there U go. That's all of Vitology.  I hope U like it. Send Your comments to:
zeekford@capecod.net
Comments