Pearl Jam - Around The Bend Chords & Tabs

 

Around The Bend Chords & Tabs

Pearl Jam Chords & Tabs

Version: 1 Type: Tab 0 ratings
1 star 2 stars 3 stars 4 stars 5 stars
comments

Around The Bend Tab

   
AROUND THE BEND
by PEARL JAM




Transcribed by: Paul Stipack (paul.stipack@hunterlink.net.au)


CHORD PROGRESSION 1:
     A              D
E-|--5--5--5--5--|--2--2--2--2--|-
B-|--5--5--5--5--|--3--3--3--3--|-
G-|--6--6--6--6--|--2--2--2--2--|-
D-|--7--7--7--7--|--0--0--0--0--|-
A-|--7--7--7--7--|--------------|-
E-|--5--5--5--5--|--------------|-
[ Tab from: http://www.guitartabs.cc/tabs/p/pearl_jam/around_the_bend_tab.html ]
RUN OVER A MAJOR CHORD:
E-|-5-5--------------------------2--|-
B-|-5-5--------------------------3--|-
G-|-6-6--------------------------2--|-
D-|-7-7--12--14--16--14--11--14--0--|-
A-|-7-7--0---0---0---0---0---0------|-
E-|-5-5-----------------------------|-

CHORD PROGRESSION 2:
    Bb  B   Bb
E-|------------|-
B-|------------|-
G-|-3---4---3--|-
D-|-3---4---3--|-
A-|-1---2---1--|-
E-|------------|-
Comments