Pearl Jam - Amongst The Waves Chords & Tabs

 

Amongst The Waves Chords & Tabs

Pearl Jam Chords & Tabs

Version: 1 Type: Bass Tab 0 ratings
1 star 2 stars 3 stars 4 stars 5 stars
comments

Amongst The Waves Bass Tab

1st verse

   G|--------------|--------------|--------------|---------------|
   D|-2--------2---|-5------------|-2--------2---|-5-------------|
   A|--------2-----|--------------|--------2-----|---------------|
   E|--------------|--------------|--------------|---------------|
What used...
G|--------------|--------------|---4----------|---------------|
D|--------------|--------------|-4------------|---------------|
A|-2------------|--------------|--------------|---------------|
E|--------------|--------------|--------------|---------------|
Saved the tear...               Letís go...
G|--------------|--------------|--------------|---------------|
D|-2--------2---|-5------5-----|--2-------2---|-5-------------|
A|--------2-----|--------------|--------2-----|---------------|
E|--------------|--------------|--------------|---------------|
And once...
G|--------------|--4-----------|--------------|---------------|
D|--------------|-4---------4--|--------------|---------------|
A|-2------------|--------------|--2-----------|---------------|
E|--------------|--------------|--------------|---------------|
If not for love..             I've seen it...

1st Chorus

   G|--------------|--------------|--------------|---------------|
   D|--------------|--------------|--------------|---------------|
   A|-4------------|-2------------|---2----------|---------------|
   E|-----5-5------|-----4-4------|--2-----------|---------------|
I am up...
G|--------------|--------------|--------------|---------------|
D|--------------|--------------|--------------|---------------|
A|-4------------|-2------------|---2----------|-2-2--2--------|
E|-----5-5------|-----4-4------|--2-----------|---------------|
I Have a soul..
G|--------------|--------------|--------------|---------------|
D|--------------|--------------|--------------|---------------|
A|-4------------|-2------------|---2----------|---------------|
E|-----5-5------|-----4-4------|--2-----------|---------------|
..like I've...                                        I gotta say it
G|--------------|--------------|
D|-5------------|-2----------2-|
A|--5-----------|--4-----------|
E|--------------|--------------|
now

2nd verse

G|--------------|--------------|--------------|---------------|
D|--------------|--------------|--------------|----------14\--|
A|--------------|--------------|--------------|---------------|
E|--------------|--------------|--------------|---------------|

G|--------------|--------------|--------------|---------------|
D|-2----------2-|--5-------5-4-|-2----------2-|--5------------|
A|-------2------|--------------|---------2----|---------------|
E|--------------|--------------|--------------|---------------|
Remember back..
G|--------------|--------------|--------------|---------------|
D|-2----------2-|--5-------5-4-|-2----------2-|--5------------|
A|-------2------|--------------|---------2----|---------------|
E|--------------|--------------|--------------|---------------|
Suddenly..
G|--------------|--------------|--------------|---------------|
D|-2----------2-|--------------|-2----------2-|---------------|
A|-------2------|--------------|---------2----|---------------|
E|--------------|--3-----------|--------------|--3------------|
Cut to later..
G|--------------|--------------|--------------|----4----------|
D|-2----------2-|--------------|--------------|--4--------4---|
A|-------2------|--------------|-2------------|-------------2-|
E|--------------|--3-----------|--------------|---------------|
It's rare..                    Survived...

2nd Chorus

G|--------------|--------------|--------------|---------------|
D|--------------|--------------|--------------|---------------|
A|-4------------|-2------------|---2----------|-2---4---6---7-|
E|-----5-5------|-----4-4------|--2-----------|---------------|
[ Tab from: http://www.guitartabs.cc/tabs/p/pearl_jam/amongst_the_waves_btab.html ]
G|--------------|--------------|--------------|---------------|
D|--------------|--------------|--------------|---------------|
A|-4------------|-2------------|---2----------|---2--2--------|
E|-----5-5------|-----4-4------|--------------|---------------|

G|--------------|--------------|--------------|---------------|
D|--------------|--------------|--------------|---------------|
A|-4------------|-2------------|---2----------|-2---4---6---7-|
E|-----5-5------|-----4-4------|--2-----------|---------------|

G|--------------|--------------|--------------|---------------|
D|--------------|--------------|--2-----------|---------------|
A|--5-----------|--4-----------|--------------|-2-------------|
E|-----5-5------|-----5-5------|--------------|---------------|

G|--------------|--------------|--------------|---------------|
D|--------------|--------------|--2-----------|---------------|
A|--5-----------|--4-----------|--------------|---------------|
E|-----5-5------|-----5-5------|--------------|---------------|

Guitar Solo

G|--------------|--------------|--------------|---------------|
D|--------------|--------------|--------------|---------------|
A|--2-----------|-0-2-0-2------|--0-2---------|--5-5--------5-|
E|--------------|--------------|--------------|---------------|

G|--------------|--------------|--------------|---------------|
D|--------------|--------------|--------------|---------------|
A|--2-----------|-0-2-0-2------|--0-2---------|--5-5-5-5-5-5--|
E|--------------|--------------|--------------|---------------|

G|--------------|--------------|--------------|---------------|
D|--------------|--------------|--------------|---------------|
A|--2-----------|-0-2-0-2------|--0-2---------|--5-5-5-5-5-5--|
E|--------------|--------------|--------------|---------------|

G|--------------|--------------|--------------|---------------|
D|--------------|--------------|--------------|---------------|
A|--2-----------|-0-2-0-2------|--0-2---------|--5-5-5-5-5-5--|
E|--------------|--------------|--------------|---------------|

3rd Chorus

G|--------------|--------------|--------------|---------------|
D|--------------|--------------|--------------|---------------|
A|-4------------|-2------------|---2----------|-2---4---6---7-|
E|-----5-5------|-----4-4------|--2-----------|---------------|

G|--------------|--------------|--------------|---------------|
D|--------------|--------------|--------------|---------------|
A|-4------------|-2------------|---2----------|---2--2--------|
E|-----5-5------|-----4-4------|--------------|---------------|

G|--------------|--------------|--------------|---------------|
D|--------------|--------------|--------------|---------------|
A|-4------------|-2------------|---2----------|-2---4---6---7-|
E|-----5-5------|-----4-4------|--2-----------|---------------|

G|--------------|--------------|--------------|---------------|
D|--------------|--------------|-----2-2-2-2--|---------------|
A|--5-----------|--4-----------|--2-----------|-2-------------|
E|-------5------|-------5------|--------------|---------------|

G|--------------|--------------|--------------|-----4-4-4-4---|
D|--------------|--------------|---2-2-2-2----|--4------------|
A|--5-----------|--4-----------|-2---------2--|---------------|
E|-------5------|-------5------|--------------|---------------|

G|--------------|--------------|--------------|---------------|
D|--------------|--------------|---2-2-2-2----|---------------|
A|--5-----------|--4-----------|-2---------2--|-2-2-----------|
E|-------5------|-------5------|--------------|---------------|

G|--------------|--------------|--------------|-----4-4-4-4---|
D|--------------|--------------|---2-2-2-2----|--4------------|
A|--5-----------|--4-----------|-2---------2--|---------------|
E|-------5------|-------5------|--------------|---------------|

G|--------------|--------------|
D|--------------|--------------|
A|--5-----------|--4-----------|
E|-------5------|-------5------|
Comments