Pearl Jam - All Or None Chords & Tabs

 

Pearl Jam Chords & Tabs

Version: 2 Type: Tab 0 ratings
1 star 2 stars 3 stars 4 stars 5 stars
comments

All Or None Tab

   
#----------------------------------PLEASE NOTE---------------------------------#
#This file is the author's own work and represents their interpretation of the #
#song. You may only use this file for private study, scholarship, or research. #
#------------------------------------------------------------------------------##
Pearl Jam: All OR None

G1: C#ADGBE (capo on 4th fret, making it FC#F#BD#G#); all notes relative to capo
G2: Standard
G3: (same tuning as G1 and same chord progression)
[ Tab from: http://www.guitartabs.cc/tabs/p/pearl_jam/all_or_none_tab_ver_2.html ]
G1: 
-|----------------------------------------------------------------------------
-|-------------------------------1--0---------------------------------1---1---
-|-------------------0---0---0---2--0-----------0---------------------2---2---
-|-2----------2------2---0---2---2--2---------0-------2---2--0--2-----2---2---
-|-2---2--2---2--2---3---3---3---0--0-----0h2-------------3--3--3--0----------
-|-3---3--0---0-------------------------3----------0--------------------------
   Intro                                                                      
G1: 
-|----------------------------------------------------------------------------
-|-------------------1------1----1--0---------------------1--------1----------
-|-------------------0--0---0----2--0---------------------0----x---2----------
-|-2--0-------2--0---2--0---2----2--2-----0---0---2---0---2----x---2----------
-|-2--0----2--2------3--3---3----0--0-----2---2---2---2---3--------0----------
-|-3--3----0----------------------------3---------0---------------------------
   Verse 1 w/ Riff A (G3)                            
G1: 
-|----------------------------------------------------------------------------
-|-------------------1-----1---1--0-----------------------1-----1---1--0------
-|-------------------0--0--0---2--0-----------------------0--0--0---2--0------
-|-0----0-2----2-2---2--0--2---2--2-------0--0---2---0----2--0--2---2--2------
-|-2----2-2----2-2---3--3--3---0--0---2---2--2---2---2----3--3--3---0--0------
-|-3----3-0---------------------------3----------0---0------------------------
     
                                                                  
G1: 
-|-----0---0---0---0----0--0--------0---0---0---0-----------------------------
-|-----0---0---0---0----0--0--------0---0---0---0-----------------------------
-|-----0---0---0---0----0--0--------0---0---0---0-----------------------------
-|-----2---2---2---2----2--2--------2---2---2---2-----------------------------
-|-----3---3---3---3----3--3--------3---3---3---3-----------------------------
-|-0---1---1---1---1----1--1--------1---1---1---1-----------------------------
 |     Rhy Fig 1                        end Rhy Fig 1                         
 | G3: 
-|----------------------------------------------------------------------------
-|----------------------------------------------------------------------------
-|-------------2------------------------2-------------------------------------
-|----------2-----2------------------2-----2----------------------------------
-|-------3----------3-------------3-----------3-------------------------------
-|-0--1------------------------1----------------------------------------------
 |                                                                             
 | G2:
-|----------------------------------------------------------------------------
-|-------------2------------------------2-------------------------------------
-|----------1-----1------------------1-----1----------------------------------
-|-------2-----------2------------2-----------2-------------------------------
-|----------------------------------------------------------------------------
-|----2------------------------2----------------------------------------------
                                                                              
G1: 
-|--0----0--0-------0----0--0-------0---0---0---0---0----------0---0--0-------
-|--0----0--0-------0----0--0-------1---1---1---1---0---0--0---0---0--0-------
-|--0----0--0---0---0----0--0---0---0---0---0---2---0---0--0---0---0--0-------
-|--0----0--0---0---2----2--2---0---2---0---2---2---2---0--0---0---0--0-------
-|--2----2--2---0---2----2--2---0---3---3---3---0---0---0--0---2---2--2-------
-|--3----3--3-------0----0--0----------------------------------3---3--3-------
    w/ Riff B (G3)
                                                               alll             
G1:                                    G1: 
-|-0---0--0-------0---0---0---0---0---|---------------------------------------
-|-0---0--0---0---1---1---1---1---0---|--------------------------1---1---1----
-|-0---0--0---0---0---0---0---2---0---|--------------0-----------0---0---0----
-|-2---2--2---0---2---0---2---2---2---|---2---0--0---0---2---2---2---0---2----
-|-2---2--2-------3---3---3---0---0---|---2---2--2---0---2-------3---3---3----
-|-0---0--0---------------------------|---3---3--3-------0--------------------
                                        Verse 2                               
G1: 
-|-0---0---0-------------------------------------------|----------------------
-|-1---0---1-------------------------1---1--1----1--1--|----------------------
-|-2---0---2-------0---0----2---0----0---0--0----2--2--|----------2-----------
-|-2---2---2-------0---2----2---2----2---2--2----2--2--|--------2---2---------
-|-0---0---0-------2---2----2---2----3---3--3----0--0--|------3-------3-------
-|-------------3---3---3----0---0----------------------|-0--1-----------------
 |                                       Repeat Once     w/ Rhy Fig 1         
 | G2: 
-|-----------------------------------------------------|----------------------
-|-----------------------------------------------------|----------2-----------
-|-----------------------------------------------------|--------1---1---------
-|-----------------------------------------------------|------2-------2-------
-|-----------------------------------------------------|----------------------
-|-----------------------------------------------------|----2-----------------
                                                                              
G1: 
-|--------------|----0----0--0-------0----0--0-------0---0---0---0---0--------
-|--------------|----0----0--0-------0----0--0-------1---1---1---1---0---0--0-
-|-------2------|----0----0--0---0---0----0--0---0---0---0---0---2---0---0--0-
-|-----2---2----|----0----0--0---0---2----2--2---0---2---0---2---2---2---0--0-
-|---3-------3--|----2----2--2---0---2----2--2---0---3---3---3---0---0---0--0-
-|-1------------|----3----3--3-------0----0--0--------------------------------
 |                but it's all or none....                                    
 | G2: 
-|--------------|-------------------------------------------------------------
-|-------2------|-------------------------------------------------------------
-|-----1---1----|-------------------------------------------------------------
-|---2-------2--|-------------------------------------------------------------
-|--------------|-------------------------------------------------------------
-|-2------------|-------------------------------------------------------------
                                                                              
G1: 
-|-0---0--0---0-0--0-------0---0---0---0---0--|-------------------------------
-|-0---0--0---0-0--0---0---1---1---1---1---0--|--------------------------1-1--
-|-0---0--0---0-0--0---0---0---0---0---2---0--|---------------0----------0-0--
-|-0---0--0---2-2--2---0---2---0---2---2---2--|----2---0--0---0---2--2---2-0--
-|-2---2--2---2-2--2-------3---3---3---0---0--|----2---2--2---0---2------3-3--
-|-3---3--3---0-0--0--------------------------|----3---3--3-------0-----------
 |                                                Solo 1                       
 | G2:
-|--------------------------------------------|-------------------------------
-|--------------------------------------------|-------------------------5--4--
-|--------------------------------------------|-6--6p4---4--4---6p4-4---------
-|--------------------------------------------|--------6----------------------
-|--------------------------------------------|-------------------------------
-|--------------------------------------------|-------------------------------
                                                                              
G1: 
-|----------------------------------------------0---0---0---0---0-------------
-|-1--1--0--------------------------------------1---1---1---1---0---0--0------
-|-0--2--0--0---------------0---------------0---0---0---0---2---0---0--0------
-|-2--2--2--0---0----0--0---0---2----2--2---0---2---0---2---2---2---0--0------
-|-3--0--0------2----2--2---0---2----2--2---0---3---3---3---0---0---0--0---2--
-|--------------3----3--3-------0----0--0----------------------------------3--
 |                                                                             
 | G2:
-|------------------------7-------7-------------------------------------------
-|-4--5--4--5--7brvv--5-----7b9------7b9r7--5v--4--5--5p4---------------------
-|---------------------------------------------------------6--4--------4h6----
-|----------------------------------------------------------------4h6---------
-|----------------------------------------------------------------------------
-|----------------------------------------------------------------------------
                                                                              
G1: 
-|---------------------0---0---0---0---0--------------------------------------
-|-----------------0---1---1---1---1---0----------------------------1---1-----
-|-----------------0---0---0---0---2---0----------------0-----------0---0-----
-|-0-0--2---2--2---0---2---0---2---2---2-----2---0--0---0---2---2---2---0-----
-|-2-2--2---2--2-------3---3---3---0---0-----2---2--2---0---2-------3---3-----
-|-3-3--0---0--0-----------------------------3---3--3-------0-----------------
 |                                                                            
 | G2:
-|--------------------9------7----9br--7--9-7---4-----------------------------
-|-9b11r9---7--9v--9-----9-9---9-------------------7b-4-5p4h5p4h5------------
-|------------------------------------------------------------------6p4----4--
-|----------------------------------------------------------------------6-----
-|----------------------------------------------------------------------------
-|----------------------------------------------------------------------------
                                                                              
G1: 
-|-----------------------------|--0----0--0-------0--0--0----0-0-0-0-0-----0--
-|-1---1--0--------------------|--0----0--0-------0--0--0----1-1-1-1-0--0--0--
-|-0---2--0--------------------|--0----0--0---0---0--0--0-0--0-0-0-2-0--0--0--
-|-2---2--2--------------------|--0----0--0---0---2--2--2-0--2-0-2-2-2--0--0--
-|-3---0--0--------------------|--2----2--2---0---2--2--2-0--3-3-3-0-0--0--2--
-|-----------------------------|--3----3--3-------0--0--0------------------3--
 |                                         
 | G2:
-|-----------------------------|----------------------------------------------
-|-----------4h5/7--5-4--------|----------------------------------------------
-|---4---4---------------6b/8--|----------------------------------------------
-|-6---6---6-------------------|----------------------------------------------
-|-----------------------------|----------------------------------------------
-|-----------------------------|----------------------------------------------
                                                                              
G1: 
-|-0-0--0---0--0-------0---0---0---0---0---|----------------------------------
-|-0-0--0---0--0---0---1---1---1---1---0---|----------------------------------
-|-0-0--0---0--0---0---0---0---0---2---0---|----------2------------2----------
-|-0-0--2---2--2---0---2---0---2---2---2---|--------2---2--------2---2--------
-|-2-2--2---2--2-------3---3---3---0---0---|------3-------3----3-------3------
-|-3-3--0---0--0---------------------------|-0--1------------1----------------
 |                                          w/ Rhy Fig 1                    
 | G2:
-|-----------------------------------------|----------------------------------
-|-----------------------------------------|-----------2-----------2----------
-|-----------------------------------------|---------1---1-------1---1--------
-|-----------------------------------------|-------2-------2---2-------2------
-|-----------------------------------------|----------------------------------
-|-----------------------------------------|-----2-----------2----------------
                                                                              
G1: 
-|----------------------------|--0---0--0------0-0-0---0---0---0---0---0------
-|----------------------------|--0---0--0------0-0-0---1---1---1---1---0---0--
-|-------2------------2-------|--0---0--0--0---0-0-0-0-0---0---0---2---0---0--
-|-----2---2--------2---2-----|--0---0--0--0---2-2-2-0-2---0---2---2---2---0--
-|---3-------3----3-------3---|--2---2--2--0---2-2-2-0-3---3---3---0---0---0--
-|-1------------1-------------|--3---3--3------0-0-0--------------------------
 |                        
 | G2: 
-|----------------------------|-----------------------------------------------
-|-------2------------2-------|-----------------------------------------------
-|-----1---1--------1---1-----|-----------------------------------------------
-|---2-------2----2-------2---|-----------------------------------------------
-|----------------------------|-----------------------------------------------
-|-2------------2-------------|-----------------------------------------------
                                                                              
G1: 
-|-0---0--0--0---0--0-------0---0---0---0---0----0----0--0-------0----0--0----
-|-0---0--0--0---0--0---0---1---1---1---1---0----0----0--0-------0----0--0----
-|-0---0--0--0---0--0---0---0---0---0---2---0----0----0--0---0---0----0--0----
-|-0---0--0--2---2--2---0---2---0---2---2---2----0----0--0---0---2----2--2----
-|-2---2--2--2---2--2-------3---3---3---0---0----2----2--2---0---2----2--2----
-|-3---3--3--0---0--0----------------------------3----3--3-------0----0--0----
                                                Rhy Fig 2                     
G1: 
-|----0---0---0---0---0----------0---0--0---0---0--0-------0---0---0---0---0--
-|----1---1---1---1---0---0--0---0---0--0---0---0--0---0---1---1---1---1---0--
-|-0--0---0---0---2---0---0--0---0---0--0---0---0--0---0---0---0---0---2---0--
-|-0--2---0---2---2---2---0--0---0---0--0---2---2--2---0---2---0---2---2---2--
-|-0--3---3---3---0---0---0--0---2---2--2---2---2--2-------3---3---3---0---0--
-|-------------------------------3---3--3---0---0--0--------------------------
                                                                end Rhy Fig 2 
G2: 
-|------------4--------------------------------------------------4------------
-|---7b9vvv-----7-4---4----------------------------------------4---7b9----r7--
-|------------------6---6-4---4-6-6br-6-4h6-4v--4--------4--6b----------------
-|--------------------------6---------------------6--4h6----------------------
-|----------------------------------------------------------------------------
-|----------------------------------------------------------------------------
   w/ Rhy Fig 2                                                               
G2: 
-|--------------------------------------------------4-------------------------
-|-9---12b14--r12--12b14---r12---12b14r12---7--9vv----7p4---4-----------------
-|-----------------11b13---r11---11b13r11-----------------6---6b7r6p4---4-----
-|--------------------------------------------------------------------6---6---
-|----------------------------------------------------------------------------
-|----------------------------------------------------------------------------
                                                                              
G2: 
-|----------------------------------------------------14--------12----12------
-|----------------------------------------12--12--12------12-12----12----12---
-|-4-6-6b7r6p4--4v--4--6b7r6vv--4h6p4---/-13----------------------------------
-|----------------------------------------------------------------------------
-|----------------------------------------------------------------------------
-|----------------------------------------------------------------------------
                                                                              
G2: 
-|-11----11----12-11-9----14-------12----12-12----11-11h12-11-------14----14--
-|----12----12---------12----12-12----12-12-12-12-------------12-12----12-----
-|----------------------------------------------------------------------------
-|----------------------------------------------------------------------------
-|----------------------------------------------------------------------------
-|----------------------------------------------------------------------------
                                                                              
G2: 
-|----14----14-14b16v--16v--r14--12-11--12p11---------------------------------
-|-12----12-----------------------------------14-12--------------------------
-|----------------------------------------------------4v--4h6p4-/11vv--8-9----
-|----------------------------------------------------------------------------
-|----------------------------------------------------------------------------
-|----------------------------------------------------------------------------
                hold bend                  begin fade                         
G2: 
-|----------------------------------------------------------------------------
-|-------------4-----4--4--4--------------------------------------------------
-|-86-8-6*----6b----6b-6b-6b-------------------------------------------------
-|----------------------------------------------------------------------------
-|----------------------------------------------------------------------------
-|----------------------------------------------------------------------------
         whammy drop                                                          

Riff A (Verse Riff):  (both riffs with some variation)
-|-0--------------------------------------------------------------------------
-|-0---0----------------------------------------------------------------------
-|-0---0----0----0------0-----2------2----------------------------------------
-|-0--------0----2------2-----2---2-------------------------------------------
-|-7------------4-----3----0-----------------------------------------------
-|-3-------------0------------------------------------------------------------
                                                                              
Riff B (Chorus Riff):
-|-0--------0---------------------0-------0-----------------------------------
-|-0--------0----1--------1-------0-------0---1---1-------1---0---------------
-|-0--------0----0--------2--0----0-------0---0---0-------2---0---------------
-|-0---0----2----2--0--2--2-------0---0---2---2---0---2---2---2---------------
-|-2---2----2----3--------0-------2---2---2---3---3-------0---0---------------
-|-3---3----0---------------------3---3---0-----------------------------------



Even Flow
Comments