Pearl Jam - Alive Chords & Tabs

 

Pearl Jam Chords & Tabs

Version: 5 Type: Bass Tab 0 ratings
1 star 2 stars 3 stars 4 stars 5 stars
comments

Alive Bass Tab

Intro(guitar)

h-hammer on
p-pull of
/-slide down
\-slide up
*-repeat pattern

G|-------------------|---------|------------|-----------|--------|---------|
D|-------------------|---------|--------5\--|-------5-7/|---*----|----*----|
A|--12---------------|-12--12/-|--0-0-5h7---|-0-5h7-----|---*----|----*----|
E|--12---------------|---------|------------|-----------|--------|---------|

G|-------------|
D|-------------|
A|-8888-10-----|
E|--------8----| (drums)
   
verse:                                 repeat 2x     ..sorry you didn't
G|--------------|--------------|------------------------------|
D|----------5\--|--------5-7/--|-----*-------------*----------|
A|--0-0-5h7-----|--0-5h7-------|-----*-------------*----------|
E|--------------|--------------|------------------------------|

pre chorus:
  see him,   But i'm  gla-d we talked
G|----------------------------------------------------|
D|----------------------------------------------------|
A|-8888-10----------------8888-10---------------------|
E|--------8----------------------8--------------------|

chorus: 3x
G|------------------------------2---|
D|-------------5--------------------|
A|-----------------5-555\--0-00-----|
E|--12/0--3-33----------------------|

post chorus 1
G|------------------|
D|------------------|
A|--------6666-10---|
E|--7777------------|

verse: 4x

pre chorus

chorus: 4x

post chorus 2
[ Tab from: http://www.guitartabs.cc/tabs/p/pearl_jam/alive_btab_ver_5.html ]
G|----------------------------|
D|*---------------------------|
A|*--------6666-10------------|
E|---7777-----------2---------|

G|---------------------------|
D|---------------------4-----|*
A|--------6666-10------------|*
E|---7777-----------2--------|

bridge
G|---------------------------|
D|--------------------------*|
A|--4-2-5----4-7-5----------*|
E|---------------------------|
                  1    2
G|---------------|----|---------|
D|---------------|---*|---------|
A|--6-4-7----6-10|-7-*|-77777777|
E|---------------|----|---------|

chorus: 4x

When solo starts, keep following the chorus pattern.
At one point, you can decide, you should play at least 2x this:
G|-------------------------------------------------|
D|-------------------------------------------------|
A|-----------------------------------1212121212----|
E|--1212121212\1515151515/1010101010---------------|
(to confirm these are 12s,15s,etc., not 1 and 2)

then at the end there is a little solo or whatever u would call it, lick, on the bass
G|--------12----12-14-14\16-14\16|(if you don't have enough frets do another
D|--14-14----14------------------|slide, if you do,then play 21 on g string)
A|-------------------------------|
E|-------------------------------|
like this
(21)G|--21--16-|
G|----14\16-16--14-12--------|
D|--------------------14-----|
A|---------------------------|
E|------------------------12/|
Comments