Pearl Jam - Alive Chords & Tabs

 

Pearl Jam Chords & Tabs

Version: 3 Type: Bass Tab 0 ratings
1 star 2 stars 3 stars 4 stars 5 stars
comments

Alive Bass Tab

Artist: Pearl Jam
Album: Ten

The intro is slow and is almost impossible to learn without listening to the song but if 
listen to it it should be pretty easy.

Intro
G|--------------|----------------------------|---------------|
D|--------------|*---------5/----------7\---*|---------------|
A|-0~~~~---12\0-|*-0-0-5/7-----0-0-5/7------*|-8888-10-------|
E|--------------|----------------------------|---------8~~~~-|

1st Verse	       Play 4x
G|----------------------------|-----------------|
D|*---------5/----------7\---*|*---------------*|
A|*-0-0-5/7-----0-0-5/7------*|*-8888-10-------*|
E|----------------------------|----------8~~~~--|

1st Chorus	       Play 3x
G|----------------------------|---------------|
D|*--------------------------*|---------------|
A|*--------------5-5---------*|------6666-6/9-|
E|-12\0--3-3333------5-5555---|-7777----------|

2nd Verse	       Play 4x
G|----------------------------|-----------------|
D|*---------5/----------7\---*|*---------------*|
A|*-0-0-5/7-----0-0-5/7------*|*-8888-10-------*|
E|----------------------------|----------8~~~~--|

2nd Chorus	       Play 4X
G|----------------------------|
D|*--------------------------*|
A|*--------------5-5---------*|
E|-12\0--3-3333------5-5555---|
[ Tab from: http://www.guitartabs.cc/tabs/p/pearl_jam/alive_btab_ver_3.html ]
After 2nd Chorus
G|-------------------|----------------------|
D|-------------------|----------------------|
A|------6666-6/9-----|------6666-6/9--------|
E|-7777----------2~~-|-7777----------2/14~~-|

G|-------------------|---------------------|
D|-------------------|------------------4\-|
A|------6666-6/9-----|------6666-6/9-------|
E|-7777----------2~~-|-7777----------2~----|

Bridge
G|----------------|-------------|-------------|
D|*--------------*|-------------|-------------|
A|*-4-2/5--4-7\5-*|-6-4/7-6-9\7-|-6-4/7-6-4/7-|
E|----------------|-------------|-------------|

3rd Chorus	       Play 4X
G|----------------------------|
D|*--------------------------*|
A|*--------------5-5---------*|
E|-12\0--3-3333------5-5555---|

Guitar Solo	       Play 4x
G|----------------------------|
D|*--------------------------*|
A|*--------------5-5---------*|
E|-12\0--3-3333------5-5555---|

The Outro is more or less the same as the chorus, just play some
of the
notes an octave higher and add some of your own flare and what not.

This is the little end solo (if you'd even call it that).
G|-----------------------------21--------------|
D|-----------17----17-19/21-21----21-19-17-----|
A|-/19-17-19----19-------------------------19\-|
E|---------------------------------------------|

any questions or comments email me at Metall1ca14@gmail.com
Comments