Peaches And Iggy Pop - Kick It Chords & Tabs

 

Kick It Chords & Tabs

Peaches And Iggy Pop Chords & Tabs

Version: 1 Type: Bass Tab 0 ratings
1 star 2 stars 3 stars 4 stars 5 stars
comments

Kick It Bass Tab

Peaches Feat. Iggy Pop- KICK IT

Verse

D--5--5--5--8--8--8--5--
A--5--5--5--8--8--8--5--    X 2 
E--3--3--3--6--6--6--3--

Play this for the 3rd part

G----------------------------5--5--5--8--8--8--8-------------
D--5--5--5--8--8--8--8--5--5--5--8--8--8--8--5--5--5--8--8--8--5-
A--5--5--5--8--8--8--8--3--3--3--6--6--6--6--5--5--5--8--8--8--5-
E--3--3--3--6--6--6--6----------------------------3--3--3--6--6--6--3-

Chorus
[ Tab from: http://www.guitartabs.cc/tabs/p/peaches_and_iggy_pop/kick_it_btab.html ]
HEEEEYYYYY.....                                      Tear it up rip it up...

G--5--5--5--5--5--5--5--5--8--8--8--8--8--8--8--8------------------------------
D--5--5--5--5--5--5--5--5--8--8--8--8--8--8--8--8--5--5--5--5--5--5--5--5
A--3--3--3--3--3--3--3--3--6--6--6--6--6--6--6--6--5--5--5--5--5--5--5--5       X 3           
E--------------------------------------------------------------3--3--3--3--3--3--3--3

That's all.  Email me if it's wrong, thebowtiebacklash@yahoo.com

Comments