Peace - Follow Baby Chords & Tabs

 

Follow Baby Chords & Tabs

Peace Chords & Tabs

Version: 4 Type: Tab 0 ratings
1 star 2 stars 3 stars 4 stars 5 stars
comments

Follow Baby Tab

INTRO
e|--4-4-4-4---\12-12-12-12---\4-4-4-4---\12-12-12-12---\4-4-4-4---\12-12-12-12-|
B|--4-4-4-4---\12-12-12-12---\4-4-4-4---\12-12-12-12---\4-4-4-4---\12-12-12-12-|
G|--5-5-5-5---\13-13-13-13---\5-5-5-5---\13-13-13-13---\5-5-5-5---\13-13-13-13-|
D|--6-6-6-6---\14-14-14-14---\6-6-6-6---\14-14-14-14---\6-6-6-6---\14-14-14-14-|
A|--6-6-6-6---\14-14-14-14---\6-6-6-6---\14-14-14-14---\6-6-6-6---\14-14-14-14-|
E|--4-4-4-4---\12-12-12-12---\4-4-4-4---\12-12-12-12---\4-4-4-4---\12-12-12-12-|

e|--\9--9--9--9----\7-7-7-7---\9---\4~-----------------------------------------|
B|--\9--9--9--9----\7-7-7-7---\9---\4~-----------------------------------------|
G|--\10-10-10-10---\8-8-8-8---\10--\5~-----------------------------------------|
D|--\11-11-11-11---\9-9-9-9---\11--\6~-----------------------------------------|
A|--\11-11-11-11---\9-9-9-9---\11--\6~-----------------------------------------|
E|--\9--9--9--9----\7-7-7-7---\9---\4~-----------------------------------------|

PRE-CHORUS
e|----------11-----11--------------14--11--------------------------------------|
B|--12--9---------------12--9--------------9-----------------------------------|
G|-----------------------------------------------------------------------------|
D|-----------------------------------------------------------------------------|
A|-----------------------------------------------------------------------------|
E|-----------------------------------------------------------------------------|

CHORUS
e|--3~----|
B|--3~----|
G|--4~----|    x4
D|--5~----|
A|--5~----|
E|--3~----|

e|--4-4-4-4---\12-12-12-12---\4-4-4-4---\12-12-12-12---\4-4-4-4---\12-12-12-12-|
B|--4-4-4-4---\12-12-12-12---\4-4-4-4---\12-12-12-12---\4-4-4-4---\12-12-12-12-|
G|--5-5-5-5---\13-13-13-13---\5-5-5-5---\13-13-13-13---\5-5-5-5---\13-13-13-13-|
D|--6-6-6-6---\14-14-14-14---\6-6-6-6---\14-14-14-14---\6-6-6-6---\14-14-14-14-|
A|--6-6-6-6---\14-14-14-14---\6-6-6-6---\14-14-14-14---\6-6-6-6---\14-14-14-14-|
E|--4-4-4-4---\12-12-12-12---\4-4-4-4---\12-12-12-12---\4-4-4-4---\12-12-12-12-|

e|--\9--9--9--9----\7-7-7-7---\9---\4~-----------------------------------------|
B|--\9--9--9--9----\7-7-7-7---\9---\4~-----------------------------------------|
G|--\10-10-10-10---\8-8-8-8---\10--\5~-----------------------------------------|
D|--\11-11-11-11---\9-9-9-9---\11--\6~-----------------------------------------|
A|--\11-11-11-11---\9-9-9-9---\11--\6~-----------------------------------------|
E|--\9--9--9--9----\7-7-7-7---\9---\4~-----------------------------------------|

OUTRO
e|--3-3-3-3-3---\12-12-12---\10-10-10-10-10---\12-12-12------------------------|
B|--3-3-3-3-3---\12-12-12---\10-10-10-10-10---\12-12-12------------------------|
G|--4-4-4-4-4---\13-13-13---\11-11-11-11-11---\13-13-13------------------------|
D|--5-5-5-5-5---\14-14-14---\12-12-12-12-12---\14-14-14------------------------|
A|--5-5-5-5-5---\14-14-14---\12-12-12-12-12---\14-14-14------------------------|
E|--3-3-3-3-3---\12-12-12---\10-10-10-10-10---\12-12-12------------------------|
[ Tab from: http://www.guitartabs.cc/tabs/p/peace/follow_baby_tab_ver_4.html ]
e|--3-3-3-3-3---\12-12-12---\10-10-10-10-10---\7-7-7---------------------------|
B|--3-3-3-3-3---\12-12-12---\10-10-10-10-10---\7-7-7---------------------------|
G|--4-4-4-4-4---\13-13-13---\11-11-11-11-11---\8-8-8---------------------------|
D|--5-5-5-5-5---\14-14-14---\12-12-12-12-12---\9-9-9---------------------------|
A|--5-5-5-5-5---\14-14-14---\12-12-12-12-12---\9-9-9---------------------------|
E|--3-3-3-3-3---\12-12-12---\10-10-10-10-10---\7-7-7---------------------------|

e|--3-3-3-3-3---\12-12-12---\10-10-10-10-10------------------------------------|
B|--3-3-3-3-3---\12-12-12---\10-10-10-10-10------------------------------------|
G|--4-4-4-4-4---\13-13-13---\11-11-11-11-11------------------------------------|
D|--5-5-5-5-5---\14-14-14---\12-12-12-12-12------------------------------------|
A|--5-5-5-5-5---\14-14-14---\12-12-12-12-12------------------------------------|
E|--3-3-3-3-3---\12-12-12---\10-10-10-10-10------------------------------------|

e|--\15-15-15---\14-14-14-14-14-14-14-14---\15-15-15-15-15-15-15---------------|
B|--\15-15-15---\14-14-14-14-14-14-14-14---\15-15-15-15-15-15-15---------------|
G|--\16-16-16---\15-15-15-15-15-15-15-15---\16-16-16-16-16-16-16---------------|
D|--\17-17-17---\16-16-16-16-16-16-16-16---\17-17-17-17-17-17-17---------------|
A|--\17-17-17---\16-16-16-16-16-16-16-16---\17-17-17-17-17-17-17---------------|
E|--\15-15-15---\14-14-14-14-14-14-14-14---\15-15-15-15-15-15-15---------------|

e|--3-3-3-3-3---\12-12-12---\10-10-10-10-10---\12-12-12------------------------|
B|--3-3-3-3-3---\12-12-12---\10-10-10-10-10---\12-12-12------------------------|
G|--4-4-4-4-4---\13-13-13---\11-11-11-11-11---\13-13-13------------------------|
D|--5-5-5-5-5---\14-14-14---\12-12-12-12-12---\14-14-14------------------------|
A|--5-5-5-5-5---\14-14-14---\12-12-12-12-12---\14-14-14------------------------|
E|--3-3-3-3-3---\12-12-12---\10-10-10-10-10---\12-12-12------------------------|

e|--3-3-3-3-3---\12-12-12---\10-10-10-10-10---\7-7-7---------------------------|
B|--3-3-3-3-3---\12-12-12---\10-10-10-10-10---\7-7-7---------------------------|
G|--4-4-4-4-4---\13-13-13---\11-11-11-11-11---\8-8-8---------------------------|
D|--5-5-5-5-5---\14-14-14---\12-12-12-12-12---\9-9-9---------------------------|
A|--5-5-5-5-5---\14-14-14---\12-12-12-12-12---\9-9-9---------------------------|
E|--3-3-3-3-3---\12-12-12---\10-10-10-10-10---\7-7-7---------------------------|

e|--3-3-3-3-3---\12-12-12---\10-10-10-10-10------------------------------------|
B|--3-3-3-3-3---\12-12-12---\10-10-10-10-10------------------------------------|
G|--4-4-4-4-4---\13-13-13---\11-11-11-11-11------------------------------------|
D|--5-5-5-5-5---\14-14-14---\12-12-12-12-12------------------------------------|
A|--5-5-5-5-5---\14-14-14---\12-12-12-12-12------------------------------------|
E|--3-3-3-3-3---\12-12-12---\10-10-10-10-10------------------------------------|

e|--\15-15-15---\14-14-14-14-14-14-14-14---\15-15-15-15-15-15-15---\3~---------|
B|--\15-15-15---\14-14-14-14-14-14-14-14---\15-15-15-15-15-15-15---\3~---------|
G|--\16-16-16---\15-15-15-15-15-15-15-15---\16-16-16-16-16-16-16---\4~---------|
D|--\17-17-17---\16-16-16-16-16-16-16-16---\17-17-17-17-17-17-17---\5~---------|
A|--\17-17-17---\16-16-16-16-16-16-16-16---\17-17-17-17-17-17-17---\5~---------|
E|--\15-15-15---\14-14-14-14-14-14-14-14---\15-15-15-15-15-15-15---\3~---------|
Comments