Pax 217 - Prizm Chords & Tabs

 

Prizm Chords & Tabs

Pax 217 Chords & Tabs

Version: 1 Type: Bass Tab 0 ratings
1 star 2 stars 3 stars 4 stars 5 stars
comments

Prizm Bass Tab

Pax217 - Prizm
Tabbed By: Erick B
EMail: boyhitscaristhebestbandever@yahoo.com
Album:  twoseventeen

Tuning: Dropped D


This is my first tab, a friend of mine showed me most of this song 
when we were jammin, the rest i just kinda figured out, its in Dropped 
D, but i usually jusr play standard and it sounds pretty good, 
have fun with this cool reggae tune, 
and check out the band
[ Tab from: http://www.guitartabs.cc/tabs/p/pax_217/prizm_btab.html ]
Verse: bass comes in at 0:19
G|---------------------------------------------------------------------
D|-5p0-3p0-----3p0-5p0-3p0---------------------------------------------
A|---------3p0---------------------------------------------------------
D|---------------------------------------------------------------------

Chorus
G|---------------------------------------------------------------------
D|---------------------------------------------------------------------
A|-00000-0-11111-1-33333-3---------------------------------------------
D|-------------------------55555---------------------------------------

Verse
Chorus
then: Low D|-1---

No bass during  rains came down

During  open the floodgates  play:
G|---------------------------------------------------------------------
D|---------------------------------------------------------------------
A|--------------3------------------------------------------------------
D|-0-3-5--0-3-5--------------------------------------------------------

Chorus
Comments