Pax 217 - Am Chords & Tabs

 

Am Chords & Tabs

Pax 217 Chords & Tabs

Version: 1 Type: Tab 0 ratings
1 star 2 stars 3 stars 4 stars 5 stars
comments

Am Tab

   
 Pax 217 A.M.
/-slide
x-scratch
PM-palm mute
^s-harmonics
G1:guitar 1
G2-guitar 2
Intro:
E----------------------------------------------------------------------------
B----------------------------------------------------------------------------
G-------------------------------------------------------------6---4----------
D----22-2------------22-2-----------22-2-----------22-2-------6---4----------
A----22-2------------22-2-----------22-2-----------22-2-------4---2----------
E----00-0------------00-0-----------00-0-----------00-0-------4---2----------
pm-----------------------------------------------------

E---------------------------------------------------------555444999777-------
B----------------------------------------------------------------------------
G---------------------------------------------------------222111666444-------
D----22-2------22-2-----22-2----------------------22-2-----------------------
A----22-2------22-2-----22-2--0--------4----2-----22-2-----------------------
E----00-0------00-0-----00-0-----4--0----0--------00-0-----------------------
pm----------------------------------------------------

Verse 1,2:G1 x2
E----------------------------------------------------------------------------
B----------------------------------------------------------------------------
G----------------------------------------------------------------------------
D----22-2----------------------22-2------------------------------------------
A----22-2---0--------4----2----22-2---0--------4----2------------------------
E----00-0------4--0----0-------00-0------4--0----0---------------------------
pm----------------------------------------------------------

Verse 1,2:G2 x2
E----------------------------------------------------------------------------
B----------------------------------------------------------------------------
G--------------------6-x-4------------------6-x-4----------------------------
D----222-22x--7-6-2--6-x-4---222-22x-7-6-2--6-x-4----------------------------
A----222-22x--7-6-2--4-x-2---222-22x-7-6-2--6-x-2----------------------------
E----000-00x--5-4-0--4-0-2---000-00x-5-4-0--4-x-2----------------------------
pm----------                  ------
[ Tab from: http://www.guitartabs.cc/tabs/p/pax_217/am_tab.html ]
Pre-Chorus: x2
E----------------------------------------------------------------------------
B----------------------------------------------------------------------------
G----------------------------------------------------------------------------
D----77777777----77777777----77777777----77777777----------------------------
A----77777777----77777777----77777777----77777777----------------------------
E----55555555----55555555----55555555----55555555----------------------------
       ^^^^        ^^^^        ^^^^        ^^^^

Chorus: x4
E----------------------------------------------------------------------------
B----------------------------------------------------------------------------
G-------------4-/s-6------------4-/s-6------------4-/s-6-----------4-/s-6----
D----22-2-------------22-2---------------22-2------------22-2----------------
A----22-2-------------22-2---------------22-2------------22-2----------------
E----00-0-------------00-0---------------00-0------------00-0----------------
pm--------           -------            -------         -------

Afterchorus:
E----------------------------------------------------------------------------
B----------------------------------------------------------------------------
G----9--------6----4---------------------------------------------------------
D----9--------6----4---------------------------------------------------------
A----7--------4----2---------------------------------------------------------
E----7--------4----2---------------------------------------------------------

Verse 2:

Pre Chorus:

Chorus:

Afterchorus:

Bridge 1: x2
E----5----7--------5----7--------------------------------------------------
B----5----9--------5----9--------------------------------------------------
G----7----9--------7----9--------------------------------------------------
D----7----9--------7----9--------------------------------------------------
A----5----7--------5----7--------------------------------------------------
E----5----7--------5----7--------------------------------------------------

Bridge 2: x4
E---------------------------------------------------------------------------
B---------------------------------------------------------------------------
G---------------------------------------------------------------------------
D----4444--7777--55----4444--7777--55---------------------------------------
A----4444--7777--55----4444--7777--55---------------------------------------
E----2222--5555--33----2222--5555--33---------------------------------------

Chorus:

Chorus/w/Verse riff


Schirmer, BLEEN
Comments