Paw - No Such Luck Chords & Tabs

 

No Such Luck Chords & Tabs

Paw Chords & Tabs

Version: 1 Type: Tab 0 ratings
1 star 2 stars 3 stars 4 stars 5 stars
comments

No Such Luck Tab

No Such Luck
Anthony DePiano
                                 ??????????????????????????????
e---------------------------------------------------------------------|
B---------------------------------------------------------------------|
G--7--7-7-7--7-7-7-7-7--7-7-7----4--4-4-4--4-4-4--4-4--4--4-4-4-------|
D--7--7-7-7--7-7-7-7-7--7-7-7----4--4-4-4--4-4-4--4-4--4--4-4-4-------|
A--5--5-5-5--5-5-5-5-5--5-5-5----2--2-2-2--2-2-2--2-2--2--2-2-2-------|
E----------------6-6-6--5-5-5--0-2--2-2-2--2-2-3--3-3--2--2-2-2-------|

I'm not even sure the chords at the end are right, but it sounds alright to me.
I think a lot of the song does this, but I don't know the chorus.


                   THEN
[ Tab from: http://www.guitartabs.cc/tabs/p/paw/no_such_luck_tab.html ]
|----Palm Mute---------------------------------------------------------|
e----------------------------------------------------------------------|
B----------------------------------------------------------------------|
G--7--7-7-7--7-7-7-7-7--7-7-7----4--4-4-4--4-4-4--4-4--4--4-4-4--------|
D--7--7-7-7--7-7-7-7-7--7-7-7----4--4-4-4--4-4-4--4-4--4--4-4-4--------|
A--5--5-5-5--5-5-5-5-5--5-5-5----2--2-2-2--2-2-2--2-2--2--2-2-2--------|
E----------------6-6-6--5-5-5--0-2--2-2-2--2-2-3--3-3--2--2-2-2--------|

I'm not 100% on this, but I think these chords are palm muted pretty close to where
I put the brackets.

Ending to No Such Luck
e-------------------------------------------------------------------|
B-------------------------------------------------------------------|
G-----6--6-6-6--6/7-7-7-7-7-7-7-7-----------------------------------|
D-----6--6-6-6--6/7-7-7-7-7-7-7-7-7--7-7-7--7/9--9-9-9-9-9-9--------|
A-----4--4-4-4--4/5-5-5-5-5-5-5-5-7--7-7-7--7/9--9-9-9-9-9-9--------|
E---------------------------------5--5-5-5--5/7--7-7-7-7-7-7--------|
Play this a few times and end on this:

e-------------------------------------------------------------------|
B-------------------------------------------------------------------|
G-----6--6-6-6--6/7-7-7-7-7-7-7-7-----------------------------------|
D-----6--6-6-6--6/7-7-7-7-7-7-7-7-7--7-7-7--7/9---------------------|
A-----4--4-4-4--4/5-5-5-5-5-5-5-5-7--7-7-7--7/9---------------------|
E---------------------------------5--5-5-5--5/7---------------------|
                                              ^Let (7,9,9) ring to end
                                               the song.
Comments