Paw - Jessie Chords & Tabs

 

Jessie Chords & Tabs

Paw Chords & Tabs

Version: 1 Type: Tab 0 ratings
1 star 2 stars 3 stars 4 stars 5 stars
comments

Jessie Tab

Title: JESSIE 
Artist: PAW 
Insturment:  Guitar
Tabbled by: SrvdLOuD, 22112004
E-mail: rjorgesilva@hotmail.com




/  - slide up
\  - slide down
^ - let ring a bit
( ) - don't pick
~  - vibrato
P.M. - Palm mute

Intro: drums

E|------------------|------------------|------------------|------------------|
B|------------------|------------------|------------------|------------------|
G|------------------|------------------|------------------|------------------|
D|------------------|------------------|------------------|-1-1-1-3-3-5-5-^--|
A|-1-1-1-3-3-5-5-11-|-1-1-1-3-3-5-5-11-|-1-1-1-3-3-5-5-11-|-1-1-1-3-3-5-5-^--|
E|-0-0-0-1-1-3-3-00-|-0-0-0-1-1-3-3-00-|-0-0-0-1-1-3-3-00-|-0-0-0-1-1-3-3-^--|
   P.M-------------   P.M-------------   P.M.------------    
 

    
E|----------------------------|
B|----------------------------|
G|----------------------------|
D|-3^--3-1^--1-3^--3-1^--1-31-|
A|-3^--3-1^--1-3^--3-1^--1-31-|
E|-1^--1-0^--0-1^--0-0^--1-10-|
     Hurt the dog, get the dog, grab the dog

E|------------------|------------------|------------------|------------------|
B|------------------|------------------|------------------|------------------|
G|------------------|------------------|------------------|------------------|
D|------------------|------------------|------------------|-1-1-1-3-3-5-5-^--|
A|-1-1-1-3-3-5-5-11-|-1-1-1-3-3-5-5-11-|-1-1-1-3-3-5-5-11-|-1-1-1-3-3-5-5-^--|
E|-0-0-0-1-1-3-3-00-|-0-0-0-1-1-3-3-00-|-0-0-0-1-1-3-3-00-|-0-0-0-1-1-3-3-^--|
   P.M-------------   P.M-------------   P.M.------------    



E|----------------------------|
B|----------------------------|
G|----------------------------|
D|-3^--3-1^--1-3^--3-1^--1-31-|
A|-3^--3-1^--1-3^--3-1^--1-31-|
E|-1^--1-0^--0-1^--0-0^--1-10-|
  Scratch my ass, scratch my ears, scratch my head

E|------------------|------------------|------------------|------------------|
B|------------------|------------------|------------------|------------------|
G|------------------|------------------|------------------|------------------|
D|------------------|------------------|------------------|-1-1-1-3-3-5-5-^--|
A|-1-1-1-3-3-5-5-11-|-1-1-1-3-3-5-5-11-|-1-1-1-3-3-5-5-11-|-1-1-1-3-3-5-5-^--|
E|-0-0-0-1-1-3-3-00-|-0-0-0-1-1-3-3-00-|-0-0-0-1-1-3-3-00-|-0-0-0-1-1-3-3-^--|
   P.M-------------   P.M-------------   P.M.------------    


E|----------------------------|
B|----------------------------|
G|----------------------------|
D|-3^--3-1^--1-3^--3-1^--1-31-|
A|-3^--3-1^--1-3^--3-1^--1-31-|
E|-1^--1-0^--0-1^--0-0^--1-10-|
Please play with me, play with me, play with me

E|-------------------------------|
B|-------------------------------|
G|-5/7-7-7---5/7-7-7---5/7-7-7---|
D|-5/7-7-7---5/7-7-7---5/7-7-7---|
A|-3/5-7-7---3/5-7-7---3/5-7-7---|
E|-------------------------------|
                                         ...Awe, but Jessie....


CHORUS

E|---------------|
B|---------------|
G|--9~10----9~10-|
D|-10------10----|  x3   
A|--8---8--------|
E|---------------|
 It's cold outside, 
                                     

E|-----88--------|
B|-----88--------|
G|---------10--9-|
D|-10------10-10-|  x1         
A|--8------------|
E|---------------|
and I'm not coming home

[ Tab from: http://www.guitartabs.cc/tabs/p/paw/jessie_tab.html ]
           
E|---------------|
B|---------------|
G|--9~10----9~10-|
D|-10------10----|  x3   
A|--8---8--------|
E|---------------|
 I don't know where to be, 
                                     

E|-----88--------|
B|-----88--------|
G|---------10--9-|
D|-10------10-10-|  x1         
A|--8------------|
E|---------------|
when the morning comes, 


E|---------------|
B|---------------|
G|--9~10----9~10-|
D|-10------10----|  x2  
A|--8---8--------|
E|---------------|
and Jessie you're ...
                                     

E|-----88--------|-8--8---------|
B|-----88--------|-10-8-10-10-9-|
G|---------10--9-|------10-10-10|
D|-10------10-10-|--------------|
A|--8------------|--------------|
E|---------------|--------------|
...a good dog                please don't follow me


E|---------------|     
B|---------------|     
G|--9~10----9~10-|     
D|-10------10----|  x2 
A|--8---8--------|     
E|---------------|     
     Just go on home                                 


|-----------------------------------------| |-------------------------------|
|-----------------------------------------| |-------------------------------|
|-------------9/10--12\10--/14--/17--/19~~| |-10-10-10-9^---10-10-10-9--9^--|
|--slide-10/12----------------------------| |-10-10-10-10^--10-10-10-10-10^-|
|-----------------------------------------| |-8--8--8--8^---8--8--8--10-10^-|
|-----------------------------------------| |-8--8--8--8^---8--8--8--8--8^--|
 (slide solo)        ... Just go on home

|-----------------------------------------| |-------------------------------|
|-----------------------------------------| |-------------------------------|
|-----------17\(12)-----------------------| |-10-10-10-9^---10-10-10-9--9^--|
|----------------10--12-------------------| |-10-10-10-10^--10-10-10-10-10^-|
|-----------------------10---12-----------| |-8--8--8--8^---8--8--8--10-10^-|
|-----------------------------------------| |-8--8--8--8^---8--8--8--8--8^--|
  (slide solo)      ... Jessie, don't follow me

|-----------------------------------------| |-------------------------------|
|-----------------------------------------| |-------------------------------|
|----------JUST SLIDE AT WILL--:)---------| |-10-10-10-9^---10-10-10-9--9^--|
|-----------------------------------------| |-10-10-10-10^--10-10-10-10-10^-|
|-----------------------------------------| |-8--8--8--8^---8--8--8--10-10^-|
|-----------------------------------------| |-8--8--8--8^---8--8--8--8--8^--|
   (slide solo)      ... Jessie, go on home.....


Last chords, just lesson to the strum
E|-5--3--1--1--1-|
B|-5--3--1--1--1-|
G|-7--5--3--2--3-|
D|-7--5--3--3--3-|
A|-5--3--1--3--1-|
E|-5--3--1--1--1-|

Jessie you're a good dog, such a good dog (5x) 



************************************************************************
(lyric)
Hurt the dog, get the dog, grab the dog
Scratch my ass, scratch my ears, scratch my head
Please play with me, play with me, play with me

Awe, but Jessie
It's cold outside, and I'm not coming home
I don't know where to be, when the morning comes
and Jessie you're a good dog, please don't follow me
Just go on home

I ran away, dog tagged along
I lost the dog, it broke my heart
Please stay with me, and play with me, stay with me

Jessie, don't follow me
Jessie, go on home

Jessie you're a good dog, such a good dog (5x)
Comments