Pavement - You Are A Light Chords & Tabs

 

You Are A Light Chords & Tabs

Pavement Chords & Tabs

Version: 1 Type: Tab 0 ratings
1 star 2 stars 3 stars 4 stars 5 stars
comments

You Are A Light Tab

   
PAVEMENT
"YOU ARE A LIGHT"
Track 3, TERROR TWILIGHT LP

these are just a couple of cool parts you might want to play.


SOLO - DROPPED D TUNING
1:30 on album
                                                            
|-----------------10--7------|
|--7---------------------10--|
|--7--9--7-----7-------------|
|-----------9----------------|
|----------------------------|
|----------------------------|


                                                           
--7--------------------------|-----------------10--7------|
-----10----------------------|--7---------------------10--|
---------7--7-------7h9-7----|--7--9--7-----7-------------|
----------------7h9-------9--|-----------9----------------|
-----------------------------|----------------------------|
-----------------------------|----------------------------|


                                                                    
--7-------------------------|-------------------|------------------|
-----10---------------7-7---|-------------------|------------------|
---------7--7---------7-7---|--7----------------|------------------|
----------------7h9-9-------|-------------------|------------------|
----------------------------|-------------------|------------------|
----------------------------|-------------------|------------------|



MINI SOLO - DROPPED D TUNING
							1:55 into song

                                                           Dm6                
------------------|------------------|------------------|--13----------------|
------------------|------------------|------------------|--12----------------|
------------------|------------------|------------------|--14----------------|
------------------|------------------|------------------|--12----------------|
------------------|------------------|------------------|--------------------|
------------------|------------------|------------------|--------------------|


                                                        
--x-x---------------|--------0-0---------0-0-0-0-------|
--x-x---------------|----3-3-----0---0-3---------0---0-|
--x-x---------------|--2-----------2---------------2---|
--x-x---------------|----------------------------------|
--------------------|----------------------------------|
--------------------|----------------------------------|


                                                                         
----0-------0-0-0-1-----0---|--2--------4--------|--4-----------10------|
--3---3-0-3-----------------|--------------------|-----------------9----|
----------------------------|--------------------|----------------------|
----------------------------|--------------------|----------------------|
----------------------------|--------------------|----------------------|
----------------------------|--------------------|----------------------|

						2:20
                                                                 
--8--------8-8-------|--8-8----------------|--------------------|
--7--------7-7-------|--7-7-------7--------|--------------------|
---------------------|---------------------|--------------------|
---------------------|---------------------|--------------------|
---------------------|---------------------|-----------4b-------|
---------------------|---------------------|--4b----------------|

[ Tab from: http://www.guitartabs.cc/tabs/p/pavement/you_are_a_light_tab.html ]
                                                                        
--------------------|-----------------------|--------------------------|
--------------------|-----------------------|--------------------------|
--------------------|-----------------------|--------------------------|
--------------------|-----------------------|--------------------------|
-----------4b-------|--5/-0-----------------|--------------------------|
--4b----------------|--------3--------3--2--|--3--2--3--2--3--2--3--2--|


2:32
                                                                              
----------------------------|----------------------------|-------------------|
--------7-------------------|----------4-----------------|-------------------|
-----------7--------7-----4-|--6--4-6---------------1----|--2----------------|
--0--0--------8--8----------|---------------4--2-4-------|-------------------|
--0--0--------9--9-----9----|----------------------------|-------------------|
--0--0--------8--8----------|----------------------------|-------------------|


                                                                                
---------------------|----------------------------|----------------------------|
---------------------|--------7-------------------|----------4-----------------|
---------------------|-----------7--------7-----4-|--6--4-6---------------1----|
--------------4/7-4--|--0--0--------8--8----------|---------------4--2-4-------|
---------------------|--0--0--------9--9-----9----|----------------------------|
---------------------|--0--0--------8--8----------|----------------------------|


                                                                        
-------------------|------------------------|--------------------------|
-------------------|------------------------|--------7-----------------|
--2----------------|------------------------|-----------7--------7-----|
-------------------|------------------------|--0--0--------8--8--------|
-------------------|----------12/-5--12/-5--|--0--0--------9--9-----9--|
-------------------|------------------------|--0--0--------8--8--------|


                                                           
--------------------------------------|-------------------|
-----------4--------------------------|-------------------|
--6--4--6-----6--4-----------1--------|--2----------------|
--------------------4--2--4-----4--2--|-------------------|
--------------------------------------|-------------------|
--------------------------------------|-------------------|


                                                    
------------------------|--------------------------|
------------------------|--------7-----------------|
------------------------|-----------7--------7-----|
----------16/-4--16/-4--|--0--0--------8--8--------|
------------------------|--0--0--------9--9-----9--|
------------------------|--0--0--------8--8--------|


                                                                              
--------------------------------------|-------------------|------------------|
-----------4--------------------------|-------------------|------------------|
--6--4--6-----6--4-----------1--------|--2----------------|------------------|
--------------------4--2--4-----4--2--|-------------------|------------------|
--------------------------------------|-------------------|------------------|
--------------------------------------|-------------------|------------------|
Comments