Pavement - Purfume - V Chords & Tabs

 

Purfume - V Chords & Tabs

Pavement Chords & Tabs

Version: 1 Type: Bass Tab 0 ratings
1 star 2 stars 3 stars 4 stars 5 stars
comments

Purfume - V Bass Tab

PAVEMENT (PERFUME-V-) TAB

FIRST VERSE GOES

G----------------------------------------------------------------|
D----------------------------------------------------------------|
A-5-5-5----------------------------------------------------------|
E-------5--5-5-5-5-5--1-1--5-5--0-0------------------------------|


SECOND VERSE GOES LIKE

G----------------------------------------------------------------|
D----------------------------------------------------------------|
A----------------------------------------------------------------|
E-0-0-0-0-0-0-0-0-1-1-1-1-1-1-1-1-3-3-3-3-3-3-3-3-5-5-5-5--------|

CHORUS
[ Tab from: http://www.guitartabs.cc/tabs/p/pavement/purfume_v_btab.html ]
G-----------------------------------------------------------------|
D-----------------------------------------------------------------|
A-3-3-3-3-3-3-3-3-3-3-3-3-3-3-3-3---------------------------------|
E---------------------------------3-3-3-3-3-3-3-3-1-1-1-1-1-1-1-1-|

G----------------------------------------------------------------|
D----------------------------------------------------------------|
A----------------------------------------------------------------|
E-1-1-1-1-1-1-1-1------------------------------------------------|

-THEN THIS WILL GO BACK INTO THE SECOND VERSE.

-THEN IT WILL RETURN BACK INTO THE CHORUS.

-EVENTUALLY IT WILL GO BACK INTO THE FIRST VERSE WHERE IT WILL END.

IF U HAVE ANY CORRECTIONS YOUR SURE ARE RIGHT PLEASE SEND THEM TO ME AT H9119@OPTONLINE.NET

THANKS
Comments