Pavement - Hexx Chords & Tabs

 

Hexx Chords & Tabs

Pavement Chords & Tabs

Version: 1 Type: Tab 0 ratings
1 star 2 stars 3 stars 4 stars 5 stars
comments

Hexx Tab

Artist: Pavement
Song: The Hexx
Album: Terror Twilight

The tab is the solo starting at 3:34 on the CD album. Any suggestions or corrections (aside from timing 
which are probably there!)
please email me:

maluspumila@email.com

cheers,
Jonny

Standard tuning

Symbols:

3/4 = slide from 3 to 4
3b4 = bend string on 3rd fret to 4
3h4 = hammer on 3 to 4
4p3 = pull off from 4 to 3
7~~ = hold
(13)14r13 = means start on 13th fret and release from a bend to 14 back down to 13.
x (above tab) denotes 8th beat to bar... apologies for the bars themselves but i aint good at tabbing...

						    x
|-----------11--13---13-13-13-(13)14r13-11-------------------------------------------------8--8--|
|-13--13b14---------------------------------11-11--9b10--------------9--11--9~~~-----------9--9--|
|---------------------------------------------------------10--8--10-----------------8h10--10-10--|
|------------------------------------------------------------------------------------------------|
|------------------------------------------------------------------------------------------------|
|------------------------------------------------------------------------------------------------|
[ Tab from: http://www.guitartabs.cc/tabs/p/pavement/hexx_tab.html ]
       x
|----------13-------------------------------------14----(17)19r17----|
|----13h15----15p13---12/13--------------14-16b17-----------------16-|
|---------------------12/13--10--8-10--------------------------------|
|--------------------------------------------------------------------|
|--------------------------------------------------------------------|
|--------------------------------------------------------------------|

			 * here all of the 18's are played on the 17th fret, too many to be tabbed - listen to song to get it right
		    x	   		* this bit isn't tabbed exactly correctly but the notes are there...
|--------16--18---------------------  -------------------------------------|
|-13-13----------18--16--(17)18-18--  -(17)18r17-16-17-16-17-16-17-16/9----|
|-----------------------------------  -------------------------------------|
|-----------------------------------  -------------------------------------|
|-----------------------------------  -------------------------------------|
|-----------------------------------  -------------------------------------|

this part is then repeated several times...
|---------------------------------------|
|-10-------10-------10-------10----10---|
|----10-------10-------10-------10------|
|-------13-------12-------13------------|
|---------------------------------------|
|---------------------------------------|
Comments