Pavement - Here Chords & Tabs

 

Here Chords & Tabs

Pavement Chords & Tabs

Version: 1 Type: Tab 0 ratings
1 star 2 stars 3 stars 4 stars 5 stars
comments

Here Tab

   
#----------------------------------PLEASE NOTE---------------------------------#
#This file is the author's own work and represents their interpretation of the #
#song. You may only use this file for private study, scholarship, or research. #
#------------------------------------------------------------------------------#
#


From gary@mc.com Sun Apr 27 11:29:40 1997
Date: Wed, 23 Apr 97 09:57:10 EDT
From: Gary Von Colln 
To: guitar@olga.net
Subject: TAB: Here by Pavement



@Song: Here
Written by Pavement
Recorded by Pavement on album "Slanted and Enchanted" (Matador)
File format: tab
Transcription by Gary Von Colln

******************************************************************************


Standard tuning tab

Verses
   A (repeat 4x)  E6 (4x)        Dmaj7 (4x)
e-|--------------|--------------|--------------|--------
B-|--------2-----|--------2-----|--------2-----|--------
G-|--2--2--2--2--|--------1-----|--2--2--2--2--|--------
D-|--2--2-----2--|--2--2-----2--|--0--0-----0--|--------
A-|--0--0-----0--|--2--2-----2--|--------------|--------
E-|--------------|--0--0-----0--|--------------|--------

Chorus 
    A/Asus4            E/E6/E7                             D
e-|-----------------|--0--------------------------------|--2-----
B-|--2--3--2--3--2--|--0-----2-----3-----2-----3-----2--|--3-----
G-|--2--2--2--2--2--|--1-----1-----1-----1-----1-----1--|--2-----
D-|--2--2--2--2--2--|--2-----2-----2-----2-----2-----2--|--0-----
A-|--0--0--0--0--0--|--2--------------------------------|--------
E-|-----------------|--0--------------------------------|--------
    come join us in a prayer, 

    D/Dmaj7            A
e-|-----------------|--------
B-|--3--3--2--3--2--|--2-----
G-|--2--2--2--2--2--|--2-----
D-|--0--0--0--0--0--|--2-----
A-|-----------------|--0-----
E-|-----------------|--------
   everything's ending here.
[ Tab from: http://www.guitartabs.cc/tabs/p/pavement/here_tab.html ]
Post chorus
    Dsus2                             E      
e-|--------------------------------|-----------0-----------------|-----------
B-|-----------5--------------5-----|--------0--------------0--2--|--3--2--2--
G-|--------2--------------2--------|--------------------2--------|--2--2--2--
D-|-----0--------------0-----------|-----2-----------2-----------|--2--2--2--
A-|--------------------------------|-----------------------------|--0--0--0--
E-|--------------------------------|-----------------------------|-----------
    And all the sterile striking it depends an empty dock you cast away


Alternate tuning tab

I played around with alternate tunings and came up with this which
sounds pretty good to me.  It's a slack tuning, meaning strings are
lowered in pitch by slackening the tension.  You tune the strings (low
to high) to: D-A-D-G-A-C#.  You can do this by tuning the 1st string
(the high e) down until it matches the sound of the 2nd string played
on the 2nd fret (C#).  Then tune the 2nd string down until it matches
the sound of the 3rd string played on the 2nd fret.  Finally, tune the
6th string down two semi-tones to D.  You can tune it so that it
sounds an octive lower than the 4th string.  If you're not good at
hearing octives, tune it so the 6th string played on the 12th fret
matches the 4th string.  The 3rd, 4th, and 5th strings are not
altered.

Verses
   A (repeat 4x)  E6 (4x)        Dmaj7 (4x)
C#-|--------0-----|--------0-----|--------0-----|--
A -|--------0-----|--------2-----|--------0-----|--
G -|--2--2-----2--|--1--1-----1--|--2--2-----2--|--
D -|--2--2-----2--|--X--X-----X--|--0--0-----0--|--
A -|--0--0-----0--|--2--2-----2--|--0--0-----0--|--
D -|--------------|--2--2-----2--|--0--0-----0--|--

Post Chorus
    Dsus2                       E                                A
C#-|-----------------------------|-----------------------------|--1--0--0--
A -|-----------7-----------7-----|-----------7-----------7-----|--0--0--0--
G -|-----------7-----------7-----|-----------9-----------9-----|--2--2--2--
D -|--------7-----------7--------|--------9-----------9--------|--2--2--2--
A -|-----5-----------5-----------|-----7-----------7-----------|--0--0--0--
D -|-----------------------------|-----------------------------|-----------
   And all the sterile striking it depends an empty dock you cast away

Outro chords
    D      E     A                    D     E    G     E
C#-|----------------------------------------------------------------
A -|----------------------------------------------------------------
G -|--------------2-------------------------------------------------
D -|--0-----2-----2--------------------0-----2-----5-----2----------
A -|--0-----2-----0--------------------0-----2-----5-----2----------
D -|--0-----2--------------------------0-----2-----5-----2----------
Comments