Paus - Slutsats Chords & Tabs

 

Slutsats Chords & Tabs

Paus Chords & Tabs

Version: 2 Type: Tab 0 ratings
1 star 2 stars 3 stars 4 stars 5 stars
comments

Slutsats Tab

Artist:		Paus
Songname:	Slutsats

Tabbed by Mathias "Mattu" Nyman
Comments, corrections and threats to mattu@mbnet.fi

Note! The 3:rd string is tuned down a half step ( G to Gb )!!!!!!!

Intro:

E :-----------------------------|-------------------------------------|
H :--------3--------------2-----|--------0--------------2-------------|
Gb:--------0---------0-------0--|--------0---------0------------------|
D :-----0--------0h2---2--------|-----0--------0h2---2-----0----------|
A :--2--------2-----------------|-------------------------------------|
E :-----------------------------|--3--------3-------------------------|

E :-----------------------------|-------------------------------------|
H :--------3--------------2-----|--------0-------------0h2------------|
Gb:--------0---------0-------0--|--------0---------0------------------|
D :-----0--------0h2---2--------|-----0--------0h2---2-----0----------|
A :--2--------2-----------------|-------------------------------------|
E :-----------------------------|--3--------3-------------------------|

E :-----------------------------|-------------------------------------|
H :--------3--------------2-----|--------0--------------2-------------|
Gb:--------0---------0-------0--|--------0---------0------------------|
D :-----0--------0h2---2--------|-----0--------0h2---2-----0----------|
A :--2--------2-----------------|-------------------------------------|
E :-----------------------------|--3--------3-------------------------|

E :-----------------------------|-------------------------------------|
H :--------3-------------0h2----|--------0--------------2-------------|
Gb:--------0---------0-------0--|--------0---------0------------------|
D :-----0--------0h2---2--------|-----0--------0h2---2-----0----------|
A :--2--------2-----------------|-------------------------------------|
E :-----------------------------|--3--------3-------------------------|


Song:

E :-----------------------------|-------------------------------------|
H :--------3------------3-------|--------3------------3---------------|
Gb:-----0-----0------0-----0----|--------0------------0---------------|
D :--0------------0-------------|-----0-----0------0-----0------------|
A :-----------------------------|-------------------------------------|
E :-----------------------------|--3------------3---------------------|

E :-----------------------------|-------------------------------------|
H :--------3------------3-------|--------3------------3---------------|
Gb:-----0-----0------0-----0----|--------0------------0---------------|
D :--0------------0-------------|-----0-----0------0-----0------------|
A :-----------------------------|-------------------------------------|
E :-----------------------------|--3------------3---------------------|

E :-----------------------------|-------------------------------------|
H :--------3------------3-------|--------3----------3-----------------|
Gb:-----0-----0------0-----0----|--------0-------------0--------------|
D :--0------------0-------------|-----0-----0----0--------0-----------|
A :-----------------------------|-------------------------------------|
E :-----------------------------|--3----------------------------------|
[ Tab from: http://www.guitartabs.cc/tabs/p/paus/slutsats_tab_ver_2.html ]
E :----------------------------|--------------------------------------|
H :--------3------------3------|-------3-----------------0------------|
Gb:--------0------------0------|-------0------0h1---------------------|
D :-----0-----0------0-----0---|----0-----0---2---2-------------------|
A :--2------------2------------|-2--------------------2---------------|
E :----------------------------|--------------------------------------|

Chorus :

E :-----------------------------|-------------------------------------|
H :--------2------------2-------|-------3------------3----------------|
Gb:--------0------------0-------|-------0------------0----------------|
D :-----2-----2------2-----2----|----0-----0------0-----0-------------|
A :--0------------0-------------|-2------------2----------------------|
E :-----------------------------|-------------------------------------|

E :-----------------------------|-------------------------------------|
H :--------3------------3-------|-------3------------2----------------|
Gb:--------0------------0-------|-------0------------0----------------|
D :-----0-----0------0-----0----|----0-----0------0-----0-------------|
A :-----------------------------|-2-----------------------------------|
E :--3------------2-------------|--------------2----------------------|

E :-----------------------------|-------------------------------------|
H :--------2------------2-------|-------3------------3----------------|
Gb:--------0------------0-------|-------0------------0----------------|
D :-----2-----2------2-----2----|----0-----0------0-----0-------------|
A :--0------------0-------------|-2------------2----------------------|
E :-----------------------------|-------------------------------------|

E :------------------------------|------------------------------------|
H :--------3------------3--------|------3------------2----------------|
Gb:--------0------------0--------|------0------------0----------------|
D :-----0-----0------0-----0-----|---0-----0------0-----0-------------|
A :------------------------------|2-----------------------------------|
E :--3------------2--------------|-------------2----------------------|

E :------------------------------|
H :--------2------------2--------|
Gb:--------0------------0--------|
D :-----2-----2------2-----2-----|
A :--0------------0--------------|
E :------------------------------|

E :-----------------------------|-------------------------------------|
H :--------3--------------2-----|--------0-------------0h2------------|
Gb:--------0---------0-------0--|--------0---------0------------------|
D :-----0--------0h2---2--------|-----0--------0h2---2-----0----------|
A :--2--------2-----------------|-------------------------------------|
E :-----------------------------|--3--------3-------------------------|

E :-----------------------------|-------------------------------------|
H :--------3--------------2-----|--------0--------------2-------------|
Gb:--------0---------0-------0--|--------0---------0------------------|
D :-----0--------0h2---2--------|-----0--------0h2---2-----0----------|
A :--2--------2-----------------|-------------------------------------|
E :-----------------------------|--3--------3-------------------------|

Outro:

E :----------------------------|--------------------------------------|
H :--------3------------2------|-------0------------2-----------------|
Gb:--------0------------0------|-------0------------0-----------------|
D :-----0-----0------2-----2---|----0-----0------2-----2--------------|
A :--2------------0------------|--------------0-----------------------|
E :----------------------------|-3------------------------------------|
Comments