Paul Wright - Take This Life Chords & Tabs

 

Take This Life Chords & Tabs

Paul Wright Chords & Tabs

Version: 1 Type: Bass Tab

Take This Life Bass Tab

Take This Life - Paul Wright

Tabbed By: Drew Fish
E-mail: microfish89@yahoo.com

Tuning: Standard

Intro Bass in @ 0:10
G|--------------|
D|--------------|
A|-----3--------|
E|--1-----5--0--|(x2)

Verse 1
G|-------------------------------------|
D|------------------7-5-3--------------|
A|-------3--3--------------------------|
E|--1----------3/8---------3/8-8--0/8--|

Chorus
G|--------------|
D|--------------|
A|-----3--------|
E|--1-----5--0--|(x4)
[ Tab from: http://www.guitartabs.cc/tabs/p/paul_wright/take_this_life_btab.html ]
Verse 2
G|-------------------------------------------|
D|------------------7-5-3--------------------|
A|-------3--3--------------------------------|
E|--1----------3/8---------8--8--0/88888888--|

(Chorus)

Bridge							Bridge Ending
G|-----------------------------------|     G|------------------|
D|------------------0-0-0-0-0-0-0-0--|     D|------------------|
A|-----------------------------------|     A|------------------|
E|--1-1-1-1-1-1-1-1------------------|(x3) E|-0-0-0-0-0-0-0-0--|

Outro
G|-------2-----------2----|
D|--3------2--023------2--|
A|----3-----------3-------|
E|------------------------|

(Chorus x6)

Order
Intro (in at 0:10)
Verse 1
Chorus
Verse 2
Chorus
Bridge + Bridge Ending
Outro
Chorus (x6)