Paul Weller - You Do Something To Me Chords & Tabs

 

You Do Something To Me Chords & Tabs

Paul Weller Chords & Tabs

Version: 1 Type: Bass Tab 0 ratings
1 star 2 stars 3 stars 4 stars 5 stars
comments

You Do Something To Me Bass Tab

   
Song: You do something to me
Artist: Paul Weller
Album: Stanley Road
Tabbed by: James Trigg (Triggj@tdg.co.uk)
http://www.basstabarchive.com/

I'm a Guitarist and I have been searching for this tab to help out
our new Bass guitarist, but I could not find it anywhere so I 
decided to give it a go and tab it myself using an acoustic guitar.  
So here it is, I've tried to keep it as close to the original 
as possible. Enjoy!


Standard tuning E, A, D, G.

Piano intro...
G|----------|----------|----------|--------------------------------|
D|----------|----------|----------|-----------------------4--5--7--|
A|----------|----------|----------|-----7--------------7-----------|
E|----------|----------|----------|--7-----------------------------|
					              "you do...


Verse1: repeated x2
|--------------------------------|--------------------------------|
|--------------------------------|--------------------------------|
|5-----------5--5----------5--7--|--------------------------------|
|---------5-------------7--------|5--------5--7--7----------5--7--|


|--------------------------------|--------------------------------|
|------------------------9----9--|--------------------------------|
|7--------------------7----------|7--------------7--7-------------|
|--------------------------------|------------7----------------7--|


|--------------------------------|--------------------------------|
|--------------------------------|--------------------------------|
|5-----------5--5----------------|--------------------------------|
|---------7----------------5--7--|5--------5--7--7----------5--7--|


			         |------------1st time------------|

|--------------------------------|--------------------------------|
|------------------------9----9--|--------------------------------|
|7--------------------7----------|7--------------7--7-------------|
|--------------------------------|------------7----------------7--|



|----------2nd time-------------|

|-------------------------------|
|-------------------------------|
|7\-----------------------------|
|---0------0--0-----------0--2--|




Chorus:
|-------------------------------|---------------------------------|
|-------------------------------|---------------------------------|
|-------------------------------|--------3--4--5---5--------5-----|
|3--3----0--3--0--3----0--3--4--|5----3----------5-------5-----7--|


|-------------------------------|---------------------------------|
|-------------------------------|---------------------------------|
|7-------7--7----7----6----5----|3-----------3-----3--------3--5--|
|-----7-------------------------|---------3-----3--------3--------|
[ Tab from: http://www.guitartabs.cc/tabs/p/paul_weller/you_do_something_to_me_btab.html ]
   						
|-------------------------------|---------------------------------|
|-------------------------------|---------------------------------|
|-----------------------------2-|3--------------------------5-----|
|3----3--0--3--5--3--5-----3-5--|---------------------------------|




Verse2:Guitar solo: Bass Tab same as verse but played through once

	       Guitar solo starts
|-------------------------------|
|----------------------4--5--7--|
|7------------------7-----------|
|-------------------------------|


|--------------------------------|--------------------------------|
|--------------------------------|--------------------------------|
|5-----------5--5----------5--7--|--------------------------------|
|---------5-------------7--------|5--------5--7--7----------5--7--|


|--------------------------------|--------------------------------|
|------------------------9----9--|--------------------------------|
|7--------------------7----------|7--------------7--7-------------|
|--------------------------------|------------7----------------7--|


|--------------------------------|--------------------------------|
|--------------------------------|--------------------------------|
|5-----------5--5----------------|--------------------------------|
|---------7----------------5--7--|5--------5--7--7----------5--7--|


|--------------------------------|--------------------------------|
|------------------------9----9--|--------------------------------|
|---------------------7----------|7\------------------------------|
|7-------------------------------|---0------0--0------------0--2--|

Chorus

Verse2

Chorus


Verse3: to end
|-------------------------------|
|----------------------4--5--7--|
|7------------------7-----------|
|-------------------------------|


|--------------------------------|--------------------------------|
|--------------------------------|--------------------------------|
|5-----------5--5----------5--7--|--------------------------------|
|---------5-------------7--------|5--------5--7--7----------5--7--|


|--------------------------------|--------------------------------|
|------------------------9----9--|------------------------9----9--|
|7--------------------7----------|7--------------------7----------|
|--------------------------------|--------------------------------|


|9------------12-11-9------------|--------------------------------|
|----------------------9--7------|--------------------------------|
|--------------------------10-9--|7-------------------------------|
|--------------------------------|---------------------7--\--3----|


|--------------------------------|
|--------------------------------|
|--------------------------------|
|0-------------------------------|
Comments