Paul Weller - The Changingman Chords & Tabs

 

The Changingman Chords & Tabs

Paul Weller Chords & Tabs

Version: 1 Type: Bass Tab 0 ratings
1 star 2 stars 3 stars 4 stars 5 stars
comments

The Changingman Bass Tab

   
The Changingman (Paul Weller)

Tabbed by vincesmyth

H hammer-on
P pull-off

INTRO (two cycles of C# B A G# guitar only)

G ||-------------------------------------||
D ||.--------11-------9-------8-------7-.||
A ||.-----11--------9-------8-------7---.||
E ||--9-9-------7-7-----6-6-----5-5------||

VERSE
           H  P    H  P    H H       P P       x2
G ||--------------------------------------------||
D ||.-----9-11-9--9-11-8--8-9-11-9-------------.||
A ||.------------------------------11-9-8------.||
E ||--9-9---------------------------------9-----||
"my time is all gone.."

BRIDGE
[ Tab from: http://www.guitartabs.cc/tabs/p/paul_weller/the_changingman_btab.html ]
G |------------------------------------------------------|
D |------------------------------------------------------|
A |------------------------------------------------------|
E |-9-7-9--9-7-9--12-10-12--12-10-12--14-12-14--5-5-5-5--|
"the more I see.."                         "..understand"

CHORUS and under GUITAR SOLO

G ||-------------------------------------||
D ||.--------11-------9-------8-------7-.||
A ||.-----11--------9-------8-------7---.||
E ||--9-9-------7-7-----6-6-----5-5------||

verse after solo

G ||----------------------------------------------------||
D ||.--------------------------------------------------.||
A ||.--------------------------------------------------.||
E ||--9-9-9-9-9-9-9-9-6-6-7-7--9-9-9-9-9-9-9-9-6-6-5-5--||

Comments