Paul Weller - Sunflower Chords & Tabs

 

Sunflower Chords & Tabs

Paul Weller Chords & Tabs

Version: 1 Type: Tab 0 ratings
1 star 2 stars 3 stars 4 stars 5 stars
comments

Sunflower Tab

Sunflower
Paul Weller

repeat this like 3 times
E|----------------------------------------------------|
B|----------------8-------------------8---------------|
G|----------5---------5----------5---------5----------|
D|-----7---------------------7------------------------|
A|----------------------------------------------------|
E|----------------------------------------------------|

[ Tab from: http://www.guitartabs.cc/tabs/p/paul_weller/sunflower_tab.html ]
E|----------------------------------------------------|
B|------------7-------------------------7-------------|
G|-------5---------5-------------5-------------5------|
D|---7--------------------7---------------------------|
A|----------------------------------------------------|
E|----------------------------------------------------|

This is my first time tabing anything so sorry if its
bad
Comments