Paul Weller - From The Floorboards Up Chords & Tabs

 

From The Floorboards Up Chords & Tabs

Paul Weller Chords & Tabs

Version: 1 Type: Tab 0 ratings
1 star 2 stars 3 stars 4 stars 5 stars
comments

From The Floorboards Up Tab

Paul weller - From The Floorboards Up

intro:

--------------------------|
--------------------------|
--------------------------|
-----0-----0-----0--------|  x2
-9-9-x-9-9-x-9-9-x-10-9---|
-7-7-x-7-7-x-7-7-x--8-7---|
-----x-----x-----x--------|

Then Intro bit for the first line

then
[ Tab from: http://www.guitartabs.cc/tabs/p/paul_weller/from_the_floorboards_up_tab.html ]
------------------------             -----------------------------|
------------------------             -----------------------------|
------------------------             -----------------------------|
------------------------   x2 then   -----------------------------|
-10-10-10-10-10-10-10-10             -9-9-9-9--10-10-10-10-10-10--|
--8--8--8--8--8--8--8--8             -7-7-7-7---8--8--8--8--8--8--|
------------------------             -----------------------------|


by billy sullivan (age 10) VOTE WELL!
Comments