Paul Simon - Late In The Evening Chords & Tabs

 

Late In The Evening Chords & Tabs

Paul Simon Chords & Tabs

Version: 2 Type: Tab 0 ratings
1 star 2 stars 3 stars 4 stars 5 stars
comments

Late In The Evening Tab

Tuning: Standard


Intro
e|-------------------------------------------------------------------|
B|-------------------------------------------------------------------|
G|-------0----------0----------0----------0----------5----------5----|
D|-----3---3------3---3------3---3------3---3------8---8------8---8--|
A|---3----------3----------3----------3----------8----------8--------|
E|-1----------1----------1----------1----------6----------6----------|

e|-------------------------------------------------------------------|
B|-------------------------------------------------------------------|
G|-------0----------0----------5----------5----------0----------0----|
D|-----3---3------3---3------8---8------8---8------3---3------3---3--|
A|---3----------3----------8----------8----------3----------3--------|
E|-1----------1----------6----------6----------1----------1----------|

e|-----------------------------------------------|
B|-----------------------------------------------|
G|--------7-----------7----------0----------0----|
D|-----10--10------10--10------3---3------3---3--|
A|---10----------10----------3----------3--------|
E|-8-----------8-----------1----------1----------|
[ Tab from: http://www.guitartabs.cc/tabs/p/paul_simon/late_in_the_evening_tab_ver_2.html ]
Verse (vocals come in)
e|--------------------------------------------------------|
B|--------------------------------------------------------|
G|-------5----------5----------5----------0----------0----|
D|-----8---8------8---8------8---8------3---3------3---3--|
A|---8----------8----------8----------3----------3--------|
E|-6----------6----------6----------1----------1----------|(2x)

e|-----------------------------------------------|
B|-----------------------------------------------|
G|--------7-----------7----------0----------0----|
D|-----10--10------10--10------3---3------3---3--|
A|---10----------10----------3----------3--------|
E|-8-----------8-----------1----------1----------|

Trumpet Jams
e|---------------------------------------------|
B|---------------------------------------------|
G|-------5----------5----------0----------0----|
D|-----8---8------8---8------3---3------3---3--|
A|---8----------8----------3----------3--------|
E|-6----------6----------1----------1----------|(2x)

e|-----------------------------------------------|
B|-----------------------------------------------|
G|--------7-----------7----------0----------0----|
D|-----10--10------10--10------3---3------3---3--|
A|---10----------10----------3----------3--------|
E|-8-----------8-----------1----------1----------|

Outro
e|-----------------------|
B|-----------------------|
G|-------0----------0----|
D|-----3---3------3---3--|
A|---3----------3--------|
E|-1----------1----------|(repeats until fade out)
Comments