Paul Mccartney - Wonderful Christmas Time Chords & Tabs

 

Wonderful Christmas Time Chords & Tabs

Paul Mccartney Chords & Tabs

Version: 1 Type: Bass Tab 0 ratings
1 star 2 stars 3 stars 4 stars 5 stars
comments

Wonderful Christmas Time Bass Tab

Tabbed by: LiverpoolLads

Tuning: Standard

Time: 2/4

Intro: Bass Comes In 0:10

G|---------------------------------------------------------------------------|
D|--------4-------6-------7----9-----------4-------6-------7----9------------|
A|----4-------6-------7----------------4-------6-------7---------------------|
E|---------------------------------------------------------------------------|

Verse:

G|---------------------------------------------------------------------------|
D|---------------------------------------------------------------------------|
A|----2-2-------------2-2--------------2-2---------------2-2-----------------|
E|---------------------------------------------------------------------------|

Chorus:
[ Tab from: http://www.guitartabs.cc/tabs/p/paul_mccartney/wonderful_christmas_time_btab.html ]
G|---------------------------------------------------------------------------|
D|--------4-------6-------7----9-----------4-------6-------7----9------------|
A|----4-------6-------7----------------4-------6-------7---------------------|
E|---------------------------------------------------------------------------|

Bridge: (Play 2x)

G|---------------------------------------------------------------------------|
D|---------------------------------------------------------------------------|
A|----2-2--------------2-2-------------2-2--------------2-2------------------|
E|---------------------------------------------------------------------------|

Ending: (Play 2x)

G|---------------------------------------------------------|
D|---------------------------------------------------------|
A|----2R---------------2R--------------2R---------------2--|R(Dont Play 2nd Time)
E|---------------------------------------------------------|


Order:

Intro
Verse
Chorus
Verse
Chorus
Bridge
Chorus
Verse
Chorus
Bridge
Verse
Chorus
Verse
Chorus(2x)
Ending


| R: Let Ring
===============================================================================
Comments