Paul Mccartney - Run Devil Run Chords & Tabs

 

Run Devil Run Chords & Tabs

Paul Mccartney Chords & Tabs

Version: 1 Type: Bass Tab 0 ratings
1 star 2 stars 3 stars 4 stars 5 stars
comments

Run Devil Run Bass Tab

   
G|------------------------------------------------------------|
D|------------------------------------------------------------|
A|------6-6-9-9-6-9-----6-6-9-9-6-9-7-7-4-4-------------------|
E|--7-7-------------7-7---------------------7-7-4-7-5---3---5-|

G|-----------------------------------------------------------------|
D|-----------------------------------------------------------------|
A|-------------4-4-7-7-4-4---------7-7-7-7-7-7-7-7-7-7-7-7-7-7-7-7-|
E|-0-0-4-4-7-7-------------7-7-4-7---------------------------------|

G|-----------------------------------------------------------------|
D|-----------------------------------------------------------------|
A|-7-7-7-7-7-7-7-7-7-7-7-7-7-7-7-7---------------------------------|
E|---------------------------------5-5-5-5-5-5-5-5-5-5-5-5-5-5-5-5-|

G|-----------------------------------------------------------------|
D|-----------------------------------------------------------------|
A|-7-7-7-7-7-7-7-7-7-7-7-7-7-7-7-7---------------------------------|
E|---------------------------------7-7-7-7-7-7-7-7-7-7-7-7-7-7-7-7-|

G|------------------------------------------------------|
D|------------------------------------------------------|
A|-------------4-4-7-7-4-4---------------------4-4-7-7--|
E|-0-0-4-4-7-7-------------7-7-4-7-0-0-4-4-7-7----------|

G|------------------------------------------------------------|
D|------------------------------------------------------------|
A|------6-6-9-9-6-9-----6-6-9-9-6-9-7-7-4-4-------------------|
E|--7-7-------------7-7---------------------7-7-4-7-5---3---5-|

G|-----------------------------------------------------------------|
D|-----------------------------------------------------------------|
A|-------------4-4-7-7-4-4---------7-7-7-7-7-7-7-7-7-7-7-7-7-7-7-7-|
E|-0-0-4-4-7-7-------------7-7-4-7---------------------------------|

G|-----------------------------------------------------------------|
D|-----------------------------------------------------------------|
A|-7-7-7-7-7-7-7-7-7-7-7-7-7-7-7-7---------------------------------|
E|---------------------------------5-5-5-5-5-5-5-5-5-5-5-5-5-5-5-5-|

G|-----------------------------------------------------------------|
D|-----------------------------------------------------------------|
A|-7-7-7-7-7-7-7-7-7-7-7-7-7-7-7-7---------------------------------|
E|---------------------------------7-7-7-7-7-7-7-7-7-7-7-7-7-7-7-7-|

G|------------------------------------------------------|
D|------------------------------------------------------|
A|-------------4-4-7-7-4-4---------------------4-4-7-7--|
E|-0-0-4-4-7-7-------------7-7-4-7-0-0-4-4-7-7----------|
[ Tab from: http://www.guitartabs.cc/tabs/p/paul_mccartney/run_devil_run_btab.html ]
G|------------------------------------------------------------|
D|------------------------------------------------------------|
A|------6-6-9-9-6-9-----6-6-9-9-6-9-7-7-4-4-------------------|
E|--7-7-------------7-7---------------------7-7-4-7-5---3---5-|

G|---------------------------------|
D|---------------------------------|
A|-------------4-4-7-7-4-4---------|
E|-0-0-4-4-7-7-------------7-7-4-7-|

G|------------------------------------------------------------------|
D|------------------------------------------------------------------|
A|-----4-4-7-7-4-7-----4-4-7-7-4-7-------------4-4-7-7-4-4----------|
E|-5-5-------------5-5-------------0-0-4-4-7-7-------------7-7-4-7--|

G|------------------------------------------------------------|
D|------------------------------------------------------------|
A|-----4-4-7-7-4-7-----4-4-7-7-4-7----------------------------|
E|-5-5-------------5-5-------------7-(let ring)---------------|

G|-----------------------------------------------------------------|
D|-----------------------------------------------------------------|
A|-7-7-7-7-7-7-7-7-7-7-7-7-7-7-7-7-7-7-7-7-7-7-7-7-7-7-7-7-7-7-7-7-|
E|-----------------------------------------------------------------|

G|-----------------------------------------------------------------|
D|-----------------------------------------------------------------|
A|---------------------------------7-7-7-7-7-7-7-7-7-7-7-7-7-7-7-7-|
E|-5-5-5-5-5-5-5-5-5-5-5-5-5-5-5-5---------------------------------|

G|-----------------------------------------------------------------|
D|-----------------------------------------------------------------|
A|---------------------------------7-7-7-7-7-7-7-7-7-7-7-7-7-7-7-7-|
E|-7-7-7-7-7-7-7-7-7-7-7-7-7-7-7-7---------------------------------|

G|------------------------------------------------------|
D|------------------------------------------------------|
A|-------------4-4-7-7-4-4---------------------4-4-7-7--|
E|-0-0-4-4-7-7-------------7-7-4-7-0-0-4-4-7-7----------|

G|------------------------------------------------------------|
D|------------------------------------------------------------|
A|------6-6-9-9-6-9-----6-6-9-9-6-9-7-7-4-4-------------------|
E|--7-7-------------7-7---------------------7-7-4-7-5---3---5-|

G|--------------------------------------------|
D|--------------------------------------------|
A|-------------4-4-7-7-4-4--------------------|
E|-0-0-4-4-7-7-------------7-7-4-7-5---3---5--|

G|--------------------------------------------|
D|--------------------------------------------|
A|-------------4-4-7-7-4-4--------------------|
E|-0-0-4-4-7-7-------------7-7-4-7-5---3---5--|

G|--------------------------------------------------------------|
D|--------------------------------------------------------------|
A|-------------4-4-7-7-4-4---------------------4-4-------7------|
E|-0-0-4-4-7-7-------------7-7-4-7-0-0-4-4-7-7-----0-4-7--------|
Comments