Paul Mccartney - Live And Let Die Chords & Tabs

 

Live And Let Die Chords & Tabs

Paul Mccartney Chords & Tabs

Version: 1 Type: Tab 0 ratings
1 star 2 stars 3 stars 4 stars 5 stars
comments

Live And Let Die Tab

                LIVE AND LET DIE
                 PAUL McCARTNEY

Tabbed by Chris Burkett.

This is my first tab and i have checked it many times, so i hope its ok.

Had to do it for school, thought it might help some one in the future. :)

E|--------------------------------------------------------------------|
B|--------------------------------------------------------------------|
G|---------4----5-----7--------4----5----7----------4----5-------7----|
D|---5-----4----5-----7---5----4----5----7-----5----4----5---7---7----|
A|---5-----2----3-----5---5----2----3----5-----5----2----3---7---5----|
E|---3--------------------3--------------------3-------------5--------|
1ST VERSE

E|---------------------------------------------------------------------|
B|---------------------------------------------------------------------|
G|-------------------5--6--7-------5--6--7-----------------------------|
D|---------------5---5--5--5----5--5--5--5-----------------------------|
A|---5--7--8-----5--------------5--------------------------------------|
E|---------------3---3--3--3----3--3--3--3-----------------------------|
CHORUS

E|------------------------------------------------------------------|
B|------------------------------------------------------------------|
G|------------------------------------------------------------------|
D|---5--7--8--------------------------5--7--8-----------------------|REPEAT 1x
A|---------------5--7--8---3--1-----------------5--7--8---3--1------|
E|---------------------------------3--------------------------------|
INSTRUMENTAL

E|--------------------------------------------------------------------|
B|--------------------------------------------------------------------|
G|--------------------------------------------------------------------|
D|--5---5---5---5---5---5---5---5---5---5---5---5---5---5---5---5---5-|
A|--5---5---5---5---5---5---5---5---5---5---5---5---5---5---5---5---5-|
E|--3---3---3---3---3---3---3---3---3---3---3---3---3---3---3---3---3-|
[OPTIONAL SOLO instead of chords]



[ Tab from: http://www.guitartabs.cc/tabs/p/paul_mccartney/live_and_let_die_tab.html ]
E|------------------------------------------------------------------------|
B|------------------------------------------------------------------------| 
G|--5--5---------------7--7-----9--10-------------------------------------|
D|--5--5------5--5-----7--7-----9--10-------------------------------------|
A|--3--3------5--5-----5--5-----7--8--------------------------------------|
E|------------3--3--------------------------------------------------------|
2ND VERSE

page 1

E|------------------------------------------------------------------|
B|------------------------------------------------------------------|
G|------------------------------------------------------------------|
D|---5--7--8--------------------------5--7--8-----------------------|REPEAT 1X
A|---------------5--7--8---3--1-----------------5--7--8---3--1------|
E|---------------------------------3--------------------------------|
INSTRUMENTAL

E|----------------------------------------------------------------------|
B|----------------------------------------------------------------------|
G|------------4-------5--------7----------------------------------------|
D|---5--------4-------5--------7----------------------------------------|
A|---5--------2-------3--------5----------------------------------------|
E|---3------------------------------------------------------------------|
SLOW FOR LAST VERSE

E|----------------------------------------------------------------------|
B|----------------------------------------------------------------------|
G|---------4----5-----7----------4----5-------7-------------------------|
D|---5-----4----5-----7-----5----4----5---7---7-------------------------|
A|---5-----2----3-----5-----5----2----3---7---5-------------------------|
E|---3----------------------3-------------5-----------------------------|
LAST VERSE

E|------------------------------------------------------------------------|
B|------------------------------------------------------------------------|
G|-------------------5--6--7-------5--6--7--------------------------------|
D|---------------5---5--5--5----5--5--5--5--------------------------------|
A|---5--7--8-----5--------------5-----------------------------------------|
E|---------------3---3--3--3----3--3--3--3--------------------------------|
CHORUS

E|------------------------------------------------------------------|
B|------------------------------------------------------------------|
G|------------------------------------------------------------------|
D|---5--7--8--------------------------5--7--8-----------------------|REPEAT 4X
A|---------------5--7--8---3--1-----------------5--7--8---3--1------|
E|---------------------------------3--------------------------------|
INSTRUMENTAL FINISH
Comments