Paul Mccartney - Live And Let Die Chords & Tabs

 

Live And Let Die Chords & Tabs

Paul Mccartney Chords & Tabs

Version: 2 Type: Bass Tab 0 ratings
1 star 2 stars 3 stars 4 stars 5 stars
comments

Live And Let Die Bass Tab

   
                             LIVE AND LET DIE
                              PAUL McCARTNEY
Tabbed by Chris Burkett.

I submitted the guitar tabs, so heres the bass. This is a realyy fun song to play,
even though it is a bit old. Thanks.

G|---------------------------------------------------------------|
D|---------------------------------------------------------------|
A|---------2---3---5-------2---3---5---------2---3--------5------|
E|----3-----------------3----------------3------------5----------|
1ST VERSE

G|---------------------------------------------------------------|
D|---------------------------------------------------------------|
A|---5--7--8-----------------------------------------------------|
E|-----------------3---3---3---3---3---3---3---3-----------------|
CHORUS
G|---------------------------------------------------------------|
D|---------------------------------------------------------------|
A|---------------------------------------------------------------|REPEAT 1x
E|-3-3-3-3-3-3-3-3-3-3-3-3-3-3-3-3-3-3-3-3-3-3-3-3-3-3-3-3-3-3-3-|
INSTUMENTAL (could be more or less, but you get the idea)

G|---------------------------------------------------------------|
D|---------------------------------------------------------------|
A|---------------------------------------------------------------|
E|-3-3-3-3-3-3-3-3-3-3-3-3-3-3-3-3-3-3-3-3-3-3-3-3-3-3-3-3-3-3-3-|
[OPTIONAL GUITAR SOLO IN BACKGROUND]

G|----------------------------------------------------------------|
D|--------------------------------0-1-0-0---0----0----------------|
A|--3-3----0-2-3-----------2------------------0-----0----0--------|
E|-------3----------2-3-3-----------------------------------2--0-1|
2ND VERSE
[ Tab from: http://www.guitartabs.cc/tabs/p/paul_mccartney/live_and_let_die_btab_ver_2.html ]
G|---------------------------------------------------------------|
D|---------------------------------------------------------------|
A|---------------------------------------------------------------|REPEAT 1x
E|-3-3-3-3-3-3-3-3-3-3-3-3-3-3-3-3-3-3-3-3-3-3-3-3-3-3-3-3-3-3-3-|
INSTUMENTAL

G|---------------------------------------------------------------|
D|---------------------------------------------------------------|
A|----------2----3----5------------------------------------------|
E|----3----------------------------------------------------------|
SLOW FOR LAST VERSE

G|---------------------------------------------------------------|
D|---------------------------------------------------------------|
A|--------2---3---5-------2---3--------5-------------------------|
E|---3-----------------3------------5----------------------------|
LAST VERSE (REPEAT OF 1ST)

G|---------------------------------------------------------------|
D|---------------------------------------------------------------|
A|---5--7--8-----------------------------------------------------|
E|-----------------3---3---3---3---3---3---3---3-----------------|
CHORUS

G|---------------------------------------------------------------|
D|---------------------------------------------------------------|
A|---------------------------------------------------------------|REPEAT 3x
E|-3-3-3-3-3-3-3-3-3-3-3-3-3-3-3-3-3-3-3-3-3-3-3-3-3-3-3-3-3-3-3-|
INSTUMENTAL

G|---------------------------------------------------------------|
D|---------------------------------------------------------------|
A|---------------------------------------------------------3--1--|
E|-3-3-3-3-3-3-3-3-3-3-3-3-3-3-3-3-3-3-3-3-3-3-3-3-3-3-3---------|
INSTRUMENTAL FINISH
Comments