Paul Mccartney - Junk Chords & Tabs

 

Junk Chords & Tabs

Paul Mccartney Chords & Tabs

Version: 1 Type: Tab 0 ratings
1 star 2 stars 3 stars 4 stars 5 stars
comments

Junk Tab

Paul McCartney - Junk 
Album : McCartney I
Tabber : Costantinos Papayiannis


E||-------0---1--0-----|-------------0-------|-----------------------|
B||--------------------|--------3------3-----|---------1----3-1---3/5|
G||--------------------|---------------------|-----------------------|
D||--------------------|---------------------|-----------------------|
A||--------------------|---------------------|-----------------------|
E||--------------------|---------------------|-----------------------|

[ Tab from: http://www.guitartabs.cc/tabs/p/paul_mccartney/junk_tab.html ]
                                                                 
-------------------|----------------------|---------------------|
-------------------|------------0---1-----|--3----------------1-|
---------2---------|-------2--------------|--------2------------|
-------------------|----------------------|---------------------|
-------------------|----------------------|---------------------|
-------------------|----------------------|---------------------|


                                                
----------------------|-----------------------||
----------------------|-----------------------||
-------2----0------2--|---0-----2---0---------||
----------------------|-----------------------||
----------------------|-----------------------||
----------------------|-----------------------||


This is basically it but sometimes the first bar changes to :


E||-------0--1--05/7-9|
B||--------------------|
G||--------------------|
D||--------------------|
A||--------------------|
E||--------------------|

 I hope that this helped someone .

Please give a good rating , I think I deserve it . Right .

Dedicated to Sara .
Comments