Paul Mccartney - Jenny Wren Chords & Tabs

 

Jenny Wren Chords & Tabs

Paul Mccartney Chords & Tabs

Version: 1 Type: Tab 0 ratings
1 star 2 stars 3 stars 4 stars 5 stars
comments

Jenny Wren Tab

(NOTE: tab is not exactly identical to the song, but is close enough to be enjoyable to play).


e-------------|---------------|---------------|----------------|
B--3-----1----|---------------|---------------|----------------|
G-------------|--3h5--5---5---|--5----5---5---|--3h5------3p2--|
D-----3-----3-|---------------|---------------|--------------0-|
A--1----------|-----5-------5-|-----5-------5-|-----5----------|
E--------1----|--3------3-----|--3------3-----|--3--------1----|


e---------------|-------------|---------------|----------------|
B---------------|-------------|---------------|----------------|
G--0----0---0---|--0-----2----|--2h3--3---3---|--3----3---3----|
D-----1-------1-|-----1-----3-|-----0-------0-|-----0-------0--|
A--1------1-----|--1-----3----|---------------|----------------|
E---------------|-------------|--3------3-----|--3------3------|


e-------------|---------------|---------------|--1-------------|
B--------1----|--1h2--2---2---|--2----2---2---|-------2---2----|
G--3----------|---------------|---------------|----------------|
D-----0-----3-|-----3-------3-|-----3-------3-|-----3-------3--|
A--------3----|--1------------|--1------------|--1-------------|
E--3----------|---------1-----|---------1-----|---------1------|

[ Tab from: http://www.guitartabs.cc/tabs/p/paul_mccartney/jenny_wren_tab.html ]
e---------------|-------------------|--------------------------|
B-------2---2---|--4-----6-----7----|--4--2--4----4---4--------|
G--3------------|-------------------|--------------------------|
D-----3-------3-|-----4-----4-----4-|-----------3-------3------|
A--1------------|--6-----5-----4----|--3--1--0------0----------|
E---------1-----|-------------------|--------------------------|


e---------------|----------------------------|-----------------|
B---------------|--------1------1h2--2---2---|--2----2---2-----|
G--2----2---2---|--3-------------------------|-----------------|
D-----3-------3-|-----3-----3------3-------3-|-----3-------3---|
A--3------3-----|--1------------1------------|--1--------------|
E---------------|--------1-------------1-----|---------1-------|

e--1----------------------------|------------------------------|
B-------2---2-----------2---2---|--4-----6-----7----7---7------|
G------------------3------------|------------------------------|
D-----3-------3-------3-------3-|-----4-----4-----4-------4----|
A--1---------------1------------|--6-----5-----4------4--------|
E---------1---------------1-----|------------------------------|


e---------------|---------------|---------------|---------------|
B--4----4---4---|---------------|---------------|---------------|
G---------------|--2----2---2---|--3----3---3---|--3------------|
D-----3-------3-|-----3-------3-|-----3-------3-|---------------|
A--0------0-----|--3------3-----|--1------------|--1------------|
E---------------|---------------|---------1-----|---------------|


TABLATURE BY CHRIS PARK
Comments