Paul Mccartney - Friends To Go Chords & Tabs

 

Friends To Go Chords & Tabs

Paul Mccartney Chords & Tabs

Version: 1 Type: Bass Tab

Friends To Go Bass Tab

Paul McCartney
Friends To Go
Standard Tuning
Tabbed by Alex Fragd (mavrick45@gmail.com)

the bass doesnt come into this song untill 1:06 but just for fun lets do the whole thing:

00:03
G--------------------------------------------------------------------------------------------|
D------------------------------2--2-2--------------------------------------------------------|
A-------------2--2-2---2--2-2-----------0--0-0------------2--2-2--2--2-2---------------------|
E---\0--0-0--------------------------------------0--0-0--------------------0--0-0---0--0-0---|

G---------------------------------------------------------------------------------------------|
D-------------------------------2--2-2--------------------------------------------------------|
A-------------2--2-2---2--2-2------------0--0-0------------2--2-2--2--2-2---------------------|
E---\0--0-0---------------------------------------0--0-0--------------------0--0-0---0--0-0---|


G----------------------------------------------------------|
D----------------------------------------------------------|
A---0--0-0---------------------4--4-4----3--3-3------------|
E------------0--0-0---2--2-2----------------------3--3-3---|

G------------------------------------------------|
D-------------------4----------------------------|
A----------------------4------------2--2-2-------|
E---2--2-2---2--2-2-------2--2-2-----------------|

[ Tab from: http://www.guitartabs.cc/tabs/p/paul_mccartney/friends_to_go_btab.html ]
1:06
G---16\---9--9------------------------------------------------------------9--9---|
D---------------9--9-----9--9------6--7--7----------9--9--9--9-------------------|
A--------------------9---------7-------------7--7------------------7--7----------|
E--------------------------------------------------------------------------------|

G--------------11-----------------------------------9----------|
D---9--9--9--9-----9---9--9----------------------------9-------|
A-----------------------------9----------7--7--7--7-------7----|
E---------------------------------7--7-------------------------|

G----------------------------------------------------------------11-------------------------|
D---7--7-----------------11--11-------------------------------11-----11------------9-----9--|
A-----------7--7--9--9------------------10--10-12-9--9--9--9-------------9--9----9----9-----|
E---------------------------------8--8-----------------------------------------7------------|

G------9----------------9----------------------------------------------------|
D----------9--9--9--9-------7\6/7-7--7-----------------9---------------------|
A---7------------------------------------7--7-------------7--7--7--7---------|
E----------------------------------------------7--7--7-----------------------|

G-----------------------------------------|
D---9--9--9--9-----9--------9\------------|
A-----------------------------------------|
E---------------7-----7--7-----7----------|

G---------------------------------12---9-------------|
D--------14\12-11----------12--------------9---------|
A---7--------------14-12-----------------------7-----|
E----------------------------------------------------|