Paul Mccartney - Another Day Chords & Tabs

 

Another Day Chords & Tabs

Paul Mccartney Chords & Tabs

Version: 1 Type: Bass Tab 0 ratings
1 star 2 stars 3 stars 4 stars 5 stars
comments

Another Day Bass Tab

"Another Day"
by Paul McCartney and Linda McCartney

This song was released as a non-album single back in 1971 and stands as one of Paul's 
post-Beatles compositions.
The bassline for this song is simply brilliant, so I just had to tab it out as there are 
no transcriptions for it
anywhere (at least not good ones). I still need to clean this tab up considerably so it 
a tad messy at the end as this
is just the first draft I did while listening to the song. Anywho, if you want to get 
same kickass tone Paul has you're
to have to use some flatwounds or lightly palm mute as you play. Good Luck! Please rate 
this took alot of work.

 Everyday she takes a morning bath she wets her hair,
|---|--------------------------------|---------------------|
|---|-5------------------------------|-4-------------------|
|---|--------------------------------|---------------------|
|---|--------------------------------|---------------------|


   Wraps a towel around her as sheís heading for the bedroom chair,   Itís just another day.
|---------------------------------|------------------------|-------------------|------------------|
|--2------------------------------|------------------------|----------------4--|--5----5----------|
|---------------------------------|------------------7/////|----------5---5----|------------------|
|---------------------------------|--5---------------------|--5----------------|------------------|


   Slipping into stockings,     Stepping into shoes,   Dipping in the pocket of her
|----------------------------|-----------------------|----------------------------|
|----------------5-----------|-----------------------|----------------5------4--5-|
|--3-------------------------|--3----5---------------|--3-------------------------|
|----------------------------|----------------3------|----------------------------|


raincoat.                   Itís just another day.  At the
|------------------------|--------------------------------|
|-/7-----7-7-7-7-7-5-4---|-----------4--5///--------------|
|----------------------7-|--5---5--7----------------------|
|------------------------|------------------3-------------|


   office where the papers grow she takes a break,        Drinks another coffee And she 
it hard to stay awake,
|---------------------------------|---------------------|-----------------------------|-------------|
|--5///---------------------------|---------------------|-----------------------------|-------------|
|---------------------------------|---------------------|-----------------------------|-------------|
|---------3-----------------------|--2---2--------------|--0---0----------------------|-/5--5-------|


         Itís just another day. du du du du du
|----------------|-------------------|-------0-----------------------------|
|--------------4-|--5----5-----------|---0-2-------------------------------|
|--------5---5---|---------------0-2-|-3-------3-5--2-3--0-2-3-0--55--3-2-0|
|--5-------------|-------------3-----|-------------------------------------|


                     itís just another day.
|------------1---4--2----------------------|
|--------0h2-----------5--4--2-------------|
|---0-2-------------------------5-5--3-2-0-|
|-3----------------------------------------|


                             Ay                                        So
|-------------------------|----------------------|------------------------|
|----------5/-------------|--5---4-5-4--2--------|----------2--5----------|
|----2--5-----------------|----------------2-----|-------2----------------|
|-3-----------------------|-------------------3--|-0--3-------------------|


3/4
   sad,            so    sad,               Sometimes she  feels so  sad.
|---------------------|------------------|---------------|--------|----------|
|--2------------------|------------------|---------------|--------|----------|
|------2-----------2--|--3---------------|--4------------|-3------|--2-------|
|----------3-0--3-----|----------3-------|---------------|--------|----------|


               Alone in her apartment sheíd dwell,     Till the man of her dreams comes 
break the spell.                                                          *
|------------|----------------------------|-----------------------------|-------------------------|-------------------|
|------------|-2--------------------------|-----------------------------|--11-------------10------|-------------------|
|---------2--|------------------------2---|-3---------------------------|-------------------------|--7----------------|
|-0---3------|--------------0----3--------|-------------3---------------|-------------------------|-----7---3-0-3-----|

[ Tab from: http://www.guitartabs.cc/tabs/p/paul_mccartney/another_day_btab.html ]
   Ah, stay, donít stand around          And he comes and he stays But he
|------------------------|-------------------|------------|-----------|--------|
|------------------4---5-|-7-7---------------|------------|-----------|--------|
|--7-7---7------7--------|------7---5--------|--5----5----|--5----5---|--5--5/3|
|-------------7----------|--------------5//--|------------|-----------|--------|

  leaves the next day                 So sad.               Sometimes she feels so sad.  
                As she
|---------------|-------------------|---------------------|--------------------------------|---------------------|
|------------1--|--2-2--2-----2-2-2-|------2--5-----------|--------------------------------|---------------------|
|-2------4------|----------2--------|-3-----------3---3---|--4---------3------------2------|---------------------|
|---------------|-------------------|---------------------|--------------------------------|--3p2--0--0----------|

   posts another letter to the sound of five,       People gather íround her And she 
it hard to stay alive,
|--------------------------|----------------------|--------------------------------|-------------|
|--------------------------|----------------------|--------------------------------|-------------|
|--------------------------|----------------------|--------------------------------|-------------|
|--3----3------------------|---2---2--------------|--0---0-------------------------|-/5--5-------|

Itís just another day.              du du du du du
|----------------|------------------------|--------0----------------------------|
|--------------4-|--5---------------------|----0-2------------------------------|
|--------5---5---|----------------------2-|--3-------3-5--2-0----2-3-0-5-0-3-2-0|
|--5-------------|-------3----------3-----|-------------------------------------|


|--------------------------------------|
|-----------6-9-7----------------------|
|---0-2-3/7-------10-9--7---5-9--3-2-0-|
|-3------------------------------------|

|-----------------|--------------------|-----------------|
|----------5/-----|--------------------|-------2--5------|
|----2--5---------|---------------2----|-----2-----------|
|-3---------------|--33--2-3-2-0----3--|-0-3-------------|

so sad                                dreams comes to break...

|-----------------|--------------|------------------------|
|--2-2------------|--------------|--11---10----9----------|
|------2-------2--|--3-----------|-----------------7------|
|---------0--3----|---------3----|-------------------7-3--|

|----------|-----------|--------------|----------------|
|----------|-----------|--------------|------------0-2-|
|--------2-|-3---------|--4---3---2---|--------0-2-----|
|---0------|-------3---|--------------|--3-0-3---------|


|------------------------|-------------------|--------|-------|--------|
|------------------4---5-|-7-7---------------|--------|-------|--------|
|--7-7---7------7--------|------7---5--------|--5---5-|--5--5-|--5--5/3|
|-------------7----------|--------------5//--|--------|-------|--------|

|----------|-------------------|---------------------|-----------------------|-------------|
|-------1--|--2-2--2-----------|-----2--5------2--5--|-----2-5-----2-5---2---|-------------|
|-2--4-----|---------------2---|-3-3--------3--------|--4-------3----------2-|-------------|
|----------|---------3-0-3-----|---------------------|-----------------------|-3p2--0---0--|

Everyday she...
|----------------|----------------|------------|-------------|
|----------------|----------------|------------|-------------|
|----------------|----------------|------------|-------------|
|--3----3--------|---2---2--------|--0---0-----|-/5--5-------|


|----------------|---------------------|-----------------------------------|
|--------------4-|--5------------------|-----------------------5--4-5--7---|
|--------5---5---|-------------------2-|--3--------3-5---------------------|
|--5-------------|-------3---------3---|-------3--------3---3--------------|

|-----------------|--------------------------|
|-7-7-7-7-7-5-4---|--------------------------|
|---------------7-|--5---3--2--0---------0-2-|
|-----------------|------------------3-3-----|

|-------0-----------------------------|
|---0-2-------------------------------|
|-3-------3-5--2-3--0-2-3-0--55--3-2-0|
|-------------------------------------|

|--------------------------------------|
|-----------6-9-7----------------------|
|---0-2-3/7-------10-9--7---5-9--3-2-0-|
|-3------------------------------------|

|------------------------------------------|
|-----5\---------3-------------------------|
|----------2-3-----0-1-2-3-3\--------------|
|-3-3----3--------------------0-1-2-0-3----|
Comments