Paul Glibert - Interaction Chords & Tabs

 

Interaction Chords & Tabs

Paul Glibert Chords & Tabs

Version: 1 Type: Tab 0 ratings
1 star 2 stars 3 stars 4 stars 5 stars
comments

Interaction Tab

i cant believe there are no tabs for this. i love this song
heres the intro

All Distorted

Rhythm Guitar 1st and 3rd time?
e|--------------------------------------------------------|
b|---------------------------7---5----Email me with-------|
g|-4-0-----0-----------------7---5------Mistakes----------|
d|-----2-4-------------------7---5----Dbielik90@gmail.com--|
a|-----------2-------0-------5---3------------------------|
E|-------------0-2-3---3-2-0------------------------------|

Lead Guitar (w/ Wah)
e|-------------------------------------------------------------|
b|-------------------------------------------------------~~~---|
g|--------------------------------------12-12-11-9-11--11b12----|
d|-------------------------------------------------------------|
a|-------------------------------------------------------------|
E|-------------------------------------------------------------|

Rhythm 2nd and 4th time
e|----------------------------------0--------------------------|
b|----------------------------------0--------------------------|
g|-5-0------0-----------------------9--------------------------|
d|-----2-4--------------------------9-------------------------|
a|------------3-------0-----3-5-----7--------------------------|
E|--------------0-2 3 --3 2 -----------------------------------|
[ Tab from: http://www.guitartabs.cc/tabs/p/paul_glibert/interaction_tab.html ]
Lead Guitar (w/ Wah)
e|-------------------------------------------------------------|
b|-------------------------------------------------------~~~---|
g|--------------------------------------12-12-11-9-11--11b12----|
d|-------------------------------------------------------------|
a|-------------------------------------------------------------|
E|-------------------------------------------------------------|

---------------------------------------------------------------------

Rhythm Guitar 
e|-------------------------------------------------------------|
b|-------------------------------------------------------------|
g|-9\------------7-9\------------------------------------------|
d|-9\--2-2-------7-9\---2-2------------------------------------|
a|-7\--2-2-etc.--5-7\---2-2-etc.------------------------------|
E|-----0-0--------------0-0------------------------------------|

Lead Guitar (w/ Wah)                                                      ~~
e|-------~~----------------~~~-------------------------------7-8-10-10b
b|-------~~-------~~~---10-10b12-----------------------7-8-10--|
g|---7--7b9--11-11b12------------------------------7-9---------|
d|-------------------------------------------7-9-10------------|
a|-------------------------------------7-9-10------------------|
E|-------------------------------7-8-10------------------------|
Comments