Paul Colman Trio - All Around The World Chords & Tabs

 

All Around The World Chords & Tabs

Paul Colman Trio Chords & Tabs

Version: 1 Type: Tab 0 ratings
1 star 2 stars 3 stars 4 stars 5 stars
comments

All Around The World Tab

   
Song Title: All Around The World
Artist: Paul Colman Trio
Tabbed by: Dan

  Em  C  G D/Bm  Am  D
E|-0--0--3--2----0---2-|
B|-0--1--3--3----1---3-|
G|-0--0--0--2----2---2-|
D|-2--2--0--4----2---0-|
A|-2--3--2--X----0---x-|
E|-0--x--3--2----x---x-|


CAPO ON 1ST FRET
Verse 1
Em   C   G   D/Bm
Em   C   G   D/Bm
Em   C   G   D/Bm
Em   C   G   D/Bm

Pre-chorus
Am    C

Chorus
G   D   Am   C
G   D   Am  (Claps)  C

Musical Break/Solo
   G     D       Am        C
E|----------------------------------------|
B|---3-----------0/1-0--------------------|
G|-----0-----2-4-------2-0----------------|
D|-------4----------------------0/2--0-0--|
A|-------------------------3----------3---|
E|----------------------------------------|
[ Tab from: http://www.guitartabs.cc/tabs/p/paul_colman_trio/all_around_the_world_tab.html ]
   G     D       Am       C
E|-----------------------------------------|
B|---3-----------0/1-0---------------------|
G|-----0-----2-4-------2-------------------|
D|-------4---------------------------------|
A|-------------------------0-2/3-2-0-------|
E|-------------------------------------3--0|

Verse
Pre-Chorus
Chorus 2
G   D   Am   C
G   D   Am   C
G   D   Am  (Claps)  C

Musical Break/Solo

Bridge           ||
E|-x-x--x-x--x-x--x-x-x-x-x-|
B|-x-x--x-x--x-x--x-x-x-x-x-|
G|-9-9--7/9--7/9--9-x-x-7-7-|
D|-9-9--7/9--7/9--9-x-x-7-7-|
A|-7-7--5/7--5/7--7-x-x-5-5-|
E|-x-x--x-x--x-x--x-x-x-x-x-|

E|-x-x--x-x--x-x--x-x-x-x-x-|
B|-x-x--x-x--x-x--x-x-x-x-x-|
G|-9-9--7/9--7/9--9-x-x-7-7-|
D|-9-9--7/9--7/9--9-x-x-7-7-|
A|-7-7--5/7--5/7--7-x-x-5-5-|
E|-x-x--x-x--x-x--x-x-x-x-x-|
               C(strum until chorus)
E|-x-x--x-x--x-0-|
B|-x-x--x-x--x-1-|
G|-9-9--7/9--7-0-|
D|-9-9--7/9--7-2-|
A|-7-7--5/7--5-3-|
E|-x-x--x-x--x-x-|

Chorus until end of song, but end song in G chord after the last C.

Hope this works out for you, email me if you like it or what not,
this is the first song I've ever tabbed.
-Dan
Comments