Patti Smith - Till Victory Chords & Tabs

 

Till Victory Chords & Tabs

Patti Smith Chords & Tabs

Version: 1 Type: Bass Tab 0 ratings
1 star 2 stars 3 stars 4 stars 5 stars
comments

Till Victory Bass Tab

Band: Patty Smith
Song: "Till Victory"
Tabbed by: Daniel Rodriguez
E-mail: 

Intro:
G|--------------------------------------------------|
D|--------------------------------------------------|
A|-----------5-------------5------------------------|
E|-8-8-8-7-5-----8-8-8-7-5--------------------------|

Riff 1:
G|--------------------------------------------------|(2x)
D|--------------------------------------------------|
A|-------------5---1-2-3--4-3-2-1-2-----------------|
E|-8-8-8-7-6-5--------------------------------------|

Riff 2:
G|--------------------------------------------------|
D|--------------------------------------------------|
A|-----------5-6----------6-------------------------|
E|-8-8-8-7-5-----6--8-8-8---------------------------|

Riff 1:
G|--------------------------------------------------|(2x)
D|--------------------------------------------------|
A|-------------5---1-2-3--4-3-2-1-2-----------------|
E|-8-8-8-7-6-5--------------------------------------|

Riff 3:
G|--------------------------------------------------|
D|--------------------------------------------------|
A|---1-\-4-/-2-\-6-/--1-\-4-4-/-2-2-\-6-------------|
E|--------------------------------------------------|

Riff 4:
G|--------------------------------------------------|(2x)
D|--------------------------------------------------|
A|--3--3-3-\-5--5-5-4-3--2--2-2-\-6--6-6------------|
E|--------------------------------------------------|

Riff 5:
G|--------------------------------------------------|
D|--------------------------------------------------|
A|---3--3-3--5--5-5-4-3-4-5-6-7-6-5-4-3-------------|
E|--------------------------------------------------|
[ Tab from: http://www.guitartabs.cc/tabs/p/patti_smith/till_victory_btab.html ]
Riff 6:
G|--------------------------------------------------|
D|--------------------------------------------------|
A|-3--3-3--5--5-5-4-3-4-5-6-7-6-5-4-3-2-1-2-3-3-3-2-|
E|--------------------------------------------------|

Riff 1:
G|--------------------------------------------------|(1x)
D|--------------------------------------------------|
A|-------------5---1-2-3--4-3-2-1-2-----------------|
E|-8-8-8-7-6-5--------------------------------------|

Riff 7:
G|--------------------------------------------------|
D|--------------------------------------------------|
A|-------------5---1-2-3--4-3-2---------------------|
E|-8-8-8-7-6-5--------------------------------------|

Riff 8:
G|--------------------------------------------------|
D|--------------------------------------------------|
A|-------------5-4-3--1-2-3--4-3-2-1-2--------------|
E|-8-8-8-7-6-5--------------------------------------|

Riff 1:
G|--------------------------------------------------|
D|--------------------------------------------------|
A|-------------5---1-2-3--4-3-2-1-2-----------------|
E|-8-8-8-7-6-5--------------------------------------|

Ending:(Till Victory....repeat until song ends)
G|--------------------------------------------------|
D|--------------------------------------------------|
A|-----------5-6------------------------------------|
E|-8-8-8-7-5-----6----------------------------------|

I couldn't find any tabs for this great song so I decided 
to make my own, thats the whole song in order enjoy it! If you have
any questions or corrections write me at 
Also check out other tabs I've made for
THE CLASH "I'm So Bored In The U.S.A."
THE CLASH "Police and Thieves" and
BLACK FLAG "Paralize"
Comments