Patti Smith - Kimberly Chords & Tabs

 

Kimberly Chords & Tabs

Patti Smith Chords & Tabs

Version: 1 Type: Bass Tab 0 ratings
1 star 2 stars 3 stars 4 stars 5 stars
comments

Kimberly Bass Tab

   
-----------------------------------------------------------------------------
			     KIMBERLEY -Patty Smith
-----------------------------------------------------------------------------

Tabbed By : Ramon is cool!
e-mail: N/A

Tuning:Standard

Intro/First Verse
G|--------------------|
D|----------2-2--4-4--|
A|2-2--2-2------------|
E|--------------------|
          just repeat for the entire first verse
[ Tab from: http://www.guitartabs.cc/tabs/p/patti_smith/kimberly_btab.html ]
Chorus
G|-----42--------|
D|----2--2-2-4---|
A|2-2---------4--|
E|---------------|

G|-----97------97|
D|----7------79--|
A|7-7----7-7-----|
E|---------------|

G|----------------------|
D|----2-4----2--4-2--024|
A|2-2-----2-2-----------|
E|----------------------|


Second/Third Verse
G|--------------|
D|---------2-2-2|
A|012-220-------|
E|--------------|
          again, just repeat


          try listening to the song to get the timing right
=============================================================================
Comments