Pattern Of Temptation - Happy Or Somthing Like It Chords & Tabs

 

Happy Or Somthing Like It Chords & Tabs

Pattern Of Temptation Chords & Tabs

Version: 1 Type: Tab 0 ratings
1 star 2 stars 3 stars 4 stars 5 stars
comments

Happy Or Somthing Like It Tab

   
Song Title: happy, or somthing like it?
Band: pattern of temptation
Album: there was an album?
Tabbed By: cory burnsed  
or 
	   
pm=palm mute
soft=_s
heavy distorsion=_h
bend up= /

 this is the greatest and best song in the world. not really
actually, it kinda blows, but hey, its all ive got concidering 
i made it up. I'm in this band, its my band, its cool. please 
email me for info on more of our songs.

   1st verse _s 
 e|------------------
 B|------------------ 
 G|-4----------------    x12
 D|-4-4-2-444-------- 
 A|-2-4-2-444--------
 E|---2-0-222--------  


     chorus _h    
 e|----------------
 B|----------------
 G|-4---------666--   x4 
 D|-4-4-2-444-666--  
 A|-2-4-2-444-444--
 E|---2-0-222------

   2nd verse s_
 e|------------------
 B|------------------ 
 G|-4----------------    x12
 D|-4-4-2-444-------- 
 A|-2-4-2-444--------
 E|---2-0-222--------  


[ Tab from: http://www.guitartabs.cc/tabs/p/pattern_of_temptation/happy_or_somthing_like_it_tab.html ]
     chorus _h    
 e|----------------
 B|----------------
 G|-4---------666--   x4 
 D|-4-4-2-444-666--  
 A|-2-4-2-444-444--
 E|---2-0-222------

   solo: really cool rockabilly riff

 e|-----22---    --5-2--------------------------------
 B|-----22---    ------5-2----------------------------
 G|-4/6------ x4 ----------4-2--4/7-------------------  )all x3 
 D|----------    -------------------2-4-4-2-----------
 A|----------    ---------------------------4-2-------
 E|----------    -------------------------------5-0-2-



   3rd verse _h
 e|------------------
 B|------------------ 
 G|-4----------------    x12
 D|-4-4-2-444-------- 
 A|-2-4-2-444--------
 E|---2-0-222--------  



     chorus _h    
 e|----------------                yeah! now you can play the guitar 
 B|----------------                like pattern of temptation! email
 G|-4---------666--   x4           me if you want to see more of our 
]D|-4-4-2-444-666--                cool music. 
 A|-2-4-2-444-444--
 E|---2-0-222------


Comments