Patsy Cline - Crazy Chords & Tabs

 

Patsy Cline Chords & Tabs

Version: 1 Type: Bass Tab 0 ratings
1 star 2 stars 3 stars 4 stars 5 stars
comments

Crazy Bass Tab

   
Song: Crazy
Band/Artist: Patsy Cline




                                  |--3--|  |--3--|  3  3  
     W                   Q.     T E  E  E  E  E  E  E  X  
G||-------------------|----------------------------------|
D||-------------------|-----------0--3--------------0--1-|
A||-------------------|--1------L-------1--2--3--4-------|
E||-------------------|----------------------------------|


         3   3       3  3    3    3               3  3    3  
  Q.     T T E  Q    E  E  S X    X H        Q    E  E  S X  
-------------0--3----5--3--0-L-|--L---------------2---------|
--L------L---------------------|----1--------0-------3--0-L-|
-------------------------------|----------------------------|
-------------------------------|----------------------------|


  3          3       |--3--|              3            3  
  X Q.     T E  Q    E  E  E     Q.     T E  Q    Q    X  
-------------0----------------|--------------------------|
--L-------------3-------------|-----------0--3-----------|
----3------L---------------0--|--1------L----------------|
---------------------1--3-----|-------------------4----3-|


         3   3       3      3    3          3       |--3--|   
  Q.     T T E  Q    Q    S X    X Q.     T E  Q    E  E  E   
------------------------------|----------------0----------0--|
----------------0---------0-L-|--L----------1-------1--L-----|
-------------2-------2--------|----3------L------------------|
--L------L--------------------|------------------------------|


           3            3    3           3       3      3  
  Q.     T E  Q    Q    X    H        S. E  Q    Q    S X  
--------------0-----------|-------------------------------|
--------------------------|-------------------------------|
--3------L-3--------------|--------------0--3----0----3-L-|
-------------------3----1-|--L----------------------------|


  3          3       |--3--|              3               3  
  X Q.     T E  Q    E  E  E     Q.     T E  Q.     T T S X  
------------------------------|-----------------------------|
------------------------------|-----------------------------|
--L----------0--3----0--L--3--|--1------L-1--2------L---2-L-|
----1------L------------------|-----------------------------|


  3          3       |--3--|              3            3  
  X Q.     T E  Q    E  E  E     Q.     T E  Q    Q    X  
-------------0----------------|--------------------------|
----------------3-------------|-----------0--3-----------|
--L-3------L---------------0--|--1------L----------------|
---------------------1--3-----|-------------------4----3-|


         3   3       3      3    3          3       |--3--|   
  Q.     T T E  Q    Q    S X    X Q.     T E  Q    E  E  E   
------------------------------|----------------0----------0--|
----------------0---------0-L-|--L----------1-------1--L-----|
-------------2-------2--------|----3------L------------------|
--L------L--------------------|------------------------------|


           3            3    3           3       3      3  
  Q.     T E  Q    Q    X    H        S. E  Q    Q    S X  
--------------0-----------|-------------------------------|
--------------------------|-------------------------------|
--3------L-3--------------|--------------0--3----0----3-L-|
-------------------3----1-|--L----------------------------|


  3          3       |--3--|              3               3  
  X Q.     T E  Q    E  E  E     Q.     T E  Q.     T T S X  
------------------------------|-----------------------------|
------------------------------|-----------------------------|
--L----------0--3----0--L--3--|--1------L-1--3------L---3-L-|
----1------L------------------|-----------------------------|


  3          3       |--3--|          |--3--|       |--3--|   
  X Q.     T E  Q    E  E  E     Q    E  E  E  Q    E  E  E   
------------------------------|-------0--L--5--3----0--L--3--|
----------------0----------0--|--1---------------------------|
--L-4------L-4-------1--3-----|------------------------------|
------------------------------|------------------------------|


       |--3--|                    |--3--|       |--3--|   
  Q    E  E  E  Q    Q       Q    E  E  E  Q    E  E  E   
-------0--L--5-------0----|-------------0----------------|
--1-------------2---------|-------0--L-----3----0--L--3--|
--------------------------|--1---------------------------|
--------------------------|------------------------------|


                              |--3--|       |--3--|   
  Q    Q    Q    Q       Q    E  E  E  Q    E  E  E   
----------------------|-------------2--0----------0--|
----------------------|-------2--L----------2--L-----|
--1----0----1----2----|--3---------------------------|
----------------------|------------------------------|

[ Tab from: http://www.guitartabs.cc/tabs/p/patsy_cline/crazy_btab.html ]
       |--3--|       |--3--|          |--3--|       |--3--|   
  Q    E  E  E  Q    E  E  E     Q    E  E  E  Q    E  E  E   
-------------2--0----------0--|------------------------------|
-------2--L----------2--L-----|-------------0----------------|
--3---------------------------|-------0--L-----3----0--L--3--|
------------------------------|--1---------------------------|


       |--3--|       |--3--|              3            3  
  Q    E  E  E  Q    E  E  E     Q.     T E  Q    Q    X  
------------------------------|--------------------------|
-------------0----------------|-----------0--3-----------|
-------0--L-----3----------0--|--1------L----------------|
--1------------------1--3-----|-------------------4----3-|


         3   3       3      3    3          3       |--3--|   
  Q.     T T E  Q    Q    S X    X Q.     T E  Q    E  E  E   
------------------------------|----------------0----------0--|
----------------0---------0-L-|--L----------1-------1--L-----|
-------------2-------2--------|----3------L------------------|
--L------L--------------------|------------------------------|


           3       |--3--|  3           3   3           3   
  Q.     T E  Q    E  E  E  X    Q.     T T E  Q.     T E   
--------------0---------------|----------------------------|
-----------1-------------0--1-|--L------L---1--0------L-0--|
--3------L---------1--3-------|----------------------------|
------------------------------|----------------------------|


           3            3           3   3                 
  Q.     T E  Q    Q    X    Q.     T T E  Q    E.  T. X  
--------------------------|-------------0----------------|
-------------------0------|----------------3-------------|
--3------L-3--2---------3-|--L------L--------------------|
--------------------------|---------------------1---L--L-|


  3 3        3  3       3  3    3    3          3             
  X H        E  E  Q    E  E  S X    X Q.     T E  Q    Q     
----------------------------------|--------------------------|
-------------0--3--4--------------|-------------1--4---------|
----1-------------------------1-L-|--L-2------L---------0----|
------------------------2--4------|--------------------------|


           3       |--3--|  3           3   3       3      3  
  Q.     T E  Q    E  E  E  X    Q.     T T E  Q    Q    S X  
------------------------------|----------------1---------1-L-|
--------------1----------1----|-------------2-------2--------|
-----------3-------3--L-----4-|--L------L--------------------|
--4------L--------------------|------------------------------|


  3          3       |--3--|              3               3  
  X Q.     T E  Q    E  E  E     Q.     T E  Q.     T T S X  
--L-------------1-------------|-----------------------------|
-------------2-------------1--|--2------L-2--1------L---1-L-|
----4------L---------2--4-----|-----------------------------|
------------------------------|-----------------------------|


  3          3                                                     
  X Q.     T E  Q    Q       W                   W                 
--------------------------|-------------------|-------------------|
--L------------------1----|-------------------|-------------------|
----4------L-4--3---------|--4----------------|-------------------|
--------------------------|-------------------|--2----------------|


                           |--3--|  |--3--|  |--3--|   
  W                   Q    E  E  E  E  E  E  E  E  E   
-------------------|-------------1--------------------|
-------------------|-------1--L-----4-----------0--1--|
-------------------|--2----------------2--3--4--------|
-------------------|----------------------------------|


       |--3--|                                                           
  Q    E  E  E  Q    Q       H        S. Q    E  T    W                  
-------1--L--6--4---------|------------------------|-------------------||
--2------------------2----|------------------------|-------------------||
--------------------------|--2--------L------------|-------------------||
--------------------------|------------------------|-------------------||




Duration Legend
---------------
W - whole
H - half
Q - quarter
E - 8th
S - 16th
T - 32nd
X - 64th
. - note dotted
|-n-|  - n-tuplets


Tablature Legend
----------------
L - tied note
x - dead note
g - grace note
(n) - ghost note
> - accentuded note
NH - natural harmonic
AH - artificial harmonic
TH - tapped harmonic
SH - semi harmonic
PH - pitch harmonic
h - hammer on
p - pull off
b - bend
br - bendRelease
pb - preBend
pbr - preBendRelease
brb - bendReleaseBend
\n/ - tremolo bar dip
\n - tremolo bar dive
-/n - tremolo bar Release up
/n\ - tremolo bar inverted dip
/n - tremolo bar return
-\n - tremolo bar Release down
S - shift slide
s - legato slide
/ -  slide into from below or out of upwards
\ -  slide into from above or out of downwards
~ - vibrato
W - wide vibrato
tr - trill
TP - tremolo picking
T - tapping
S - slap
P - pop
< - fade in
^ - brush up
v - brush down
Comments