Patent Pending - Psycho In Love Chords & Tabs

 

Psycho In Love Chords & Tabs

Patent Pending Chords & Tabs

Version: 1 Type: Tab 0 ratings
1 star 2 stars 3 stars 4 stars 5 stars
comments

Psycho In Love Tab

   
Hey guys there wasn't a tab for this so I thought I would put what I've learnt (by 
ear) out there. If you got anything you can add, 
comment or send me a message at aidanpanvalkar@hotmail.co.uk and I'll edit it in! Enjoy!

PLAYING TIPS FOR THIS SONG: Its pretty easy if you listen to the song to work out 
the rhythm but it is slightly swung 


P.S At the moment its just the rhythm part. Feel free to contact me on corrections 
or additional parts

-------------------------------------------------------------------------------
                                              PSYCHO IN LOVE - Patent Pending
-------------------------------------------------------------------------------
Tabbed by: Aidan Panvalkar
E-mail: aidanpanvalkar@hotmail.co.uk

Tuning: Half Step Down ( D#, G#, C#, F#, A#, d#)

INTRO:

d#|-----------------------------|
A#|-----------------------------|
F#|-4--------------------4-4----|   
C#|-4---4---2-2--2---4---4-4----|
G#|-2---4---2-2--2---4---2-2----|
D#|-----2---0-0--0---2----------|      x4

VERSE 1:

d#|-------------------------------------|
A#|-------------------------------------|
F#|---4-----------------4---------------|
C#|--4-4---------------4-4--------------|
G#|-2----2-2-4-4-6-6-2-----2-2-4-4-4-4--|
D#|-----0-0-2-2-4-4-------0-0-2-2-2-2---|   x3

d#|---------------------------------------------------------------|
A#|---------------------------------------------------------------|
F#|-xxx4-4----------------------xxx4-4----------------------------|
C#|-xxx4-4-xxx2-2-xxx4-4-xxx6-6-xxx4-4-xxx2-2-4-4-4-4-4-4-4-------|
G#|-xxx2-2-xxx2-2-xxx4-4-xxx6-6-xxx2-2-xxx2-2-4-4-4-4-4-4-4-------|
D#|--------xxx0-0-xxx2-2-xxx4-4--------xxx0-0-2-2-2-2-2-2-2--12\0-|
                                             |--3--||--3--|
CHORUS:

d#|-----------------------------------|
A#|-----------------------------------|
F#|------------------4-4-4-4----------|
C#|-2-2-2-2-2-2-2-2--4-4-4-4-4-4-4-4--|
G#|-2-2-2-2-2-2-2-2--2-2-2-2-4-4-4-4--|
D#|-0-0-0-0-0-0-0-0----------2-2-2-2--| x2

d#|--------------------------------------------------------------------------|
A#|--------------------------------------------------------------------------|
F#|------------------4-4-4-4-------------------------------------------------|
C#|-6-6-6-6-6-6-6-6--4-4-4-4-4-4-4-4---x--x-x--x-x--4--4---xxxx--------------|
G#|-6-6-6-6-6-6-6-6--2-2-2-2-4-4-4-4---x--x-x--x-x--4--4---xxxx--------------|
D#|-4-4-4-4-4-4-4-4----------2-2-2-2---x--x-x--x-x--2--2---xxxx--------------|

BRIDGE:

d#|-----------------------------|
A#|-----------------------------|
F#|-4--------------------4-4----|   
C#|-4---4---2-2--2---4---4-4----|
G#|-2---4---2-2--2---4---2-2----|
D#|-----2---0-0--0---2----------|  x2

VERSE 2:

d#|--------------------------------------------------------------|
A#|--------------------------------------------------------------|
F#|-xxx4-4----------------------xxx4-4---------------------------|
C#|-xxx4-4-xxx2-2-xxx4-4-xxx6-6-xxx4-4-xxx2-2-xxx4-4-xxx4-4-xxx--|
G#|-xxx2-2-xxx2-2-xxx4-4-xxx6-6-xxx2-2-xxx2-2-xxx4-4-xxx4-4-xxx--|
D#|--------xxx0-0-xxx2-2-xxx4-4--------xxx0-0-xxx2-2-xxx2-2-xxx--|
[ Tab from: http://www.guitartabs.cc/tabs/p/patent_pending/psycho_in_love_tab.html ]
d#|---------------------------------------------------------------------|
A#|---------------------------------------------------------------------|
F#|--4-4-4-4-------------------------4-4-4-4----------------------------|
C#|--4-4-4-4-2-2-2-2-4-4-4-4-6-6-6-6-4-4-4-4-2-2-2-2-4-4-4-4-4-4-4-4----|
G#|--2-2-2-2-2-2-2-2-4-4-4-4-6-6-6-6-2-2-2-2-2-2-2-2-4-4-4-4-4-4-4-4----|
D#|----------0-0-0-0-2-2-2-2-4-4-4-4---------0-0-0-0-2-2-2-2-2-2-2-2----|
                                                     |-3-|   |-3-|
CHORUS:

d#|-----------------------------------|
A#|-----------------------------------|
F#|------------------4-4-4-4----------|
C#|-2-2-2-2-2-2-2-2--4-4-4-4-4-4-4-4--|
G#|-2-2-2-2-2-2-2-2--2-2-2-2-4-4-4-4--|
D#|-0-0-0-0-0-0-0-0----------2-2-2-2--| x2

d#|--------------------------------------------------------------------------|
A#|--------------------------------------------------------------------------|
F#|------------------4-4-4-4-------------------------------------------------|
C#|-6-6-6-6-6-6-6-6--4-4-4-4-4-4-4-4---x--x-x--x-x--4--4---xxxx--------------|
G#|-6-6-6-6-6-6-6-6--2-2-2-2-4-4-4-4---x--x-x--x-x--4--4---xxxx--------------|
D#|-4-4-4-4-4-4-4-4----------2-2-2-2---x--x-x--x-x--2--2---xxxx--------------|

MIDDLE 8 (FAST LYRICS):

d#|------------------------------------|
A#|------------------------------------|
F#|------------------4-4-4-4-----------|
C#|-6-6-6-6-2-2-2-2--4-4-4-4-4-4-4-4---|
G#|-6-6-6-6-2-2-2-2--2-2-2-2-4-4-4-4---|
D#|-4-4-4-4-0-0-0-0----------2-2-2-2---| x3

d#|-------------------------------------|
A#|-------------------------------------|
F#|-------------------------------------|
C#|-7-7-7-7-7-7-7-7-2-2-2-2-4-4-4-4-2---|
G#|-7-7-7-7-7-7-7-7-2-2-2-2-4-4-4-4-2---|
D#|-5-5-5-5-5-5-5-5-0-0-0-0-2-2-2-2-0---|

BRIDGE:

d#|-----------------------------|
A#|-----------------------------|
F#|-4--------------------4-4----|   
C#|-4---4---2-2--2---4---4-4----|
G#|-2---4---2-2--2---4---2-2----|
D#|-----2---0-0--0---2----------| x3

d#|--------------------------------------|
A#|--------------------------------------|
F#|-4------------------------------------|   
C#|-4---4---2-2--xxx2-2-xxx2-2--xxx------|
G#|-2---4---2-2--xxx2-2-xxx2-2--xxx------|
D#|-----2---0-0--xxx0-0-xxx0-0--xxx------| 

CHORUS

d#|-----------------------------------|
A#|-----------------------------------|
F#|------------------4-4-4-4----------|
C#|-2-2-2-2-2-2-2-2--4-4-4-4-4-4-4-4--|
G#|-2-2-2-2-2-2-2-2--2-2-2-2-4-4-4-4--|
D#|-0-0-0-0-0-0-0-0----------2-2-2-2--| x2

d#|----------------------------------------------------------|
A#|----------------------------------------------------------|
F#|------------------4-4-4-4---------------------------------|
C#|-6-6-6-6-2-2-2-2--4-4-4-4-4-4-4-4-2-2-2-2-4-4-4-4---------|
G#|-6-6-6-6-2-2-2-2--2-2-2-2-4-4-4-4-2-2-2-2-4-4-4-4---------|
D#|-4-4-4-4-0-0-0-0----------2-2-2-2-0-0-0-0-2-2-2-2---------|

d#|-----------------------------------|
A#|-----------------------------------|
F#|------------------4-4-4-4----------|
C#|-2-2-2-2-2-2-2-2--4-4-4-4-4-4-4-4--|
G#|-2-2-2-2-2-2-2-2--2-2-2-2-4-4-4-4--|
D#|-0-0-0-0-0-0-0-0----------2-2-2-2--| x2

d#|--------------------------------------------------------------------------|
A#|--------------------------------------------------------------------------|
F#|------------------4-4-4-4-------------------------------------------------|
C#|-6-6-6-6-2-2-2-2--4-4-4-4-4-4-4-4---x--x-x--x-x--4--4---xxxx--------------|
G#|-6-6-6-6-2-2-2-2--2-2-2-2-4-4-4-4---x--x-x--x-x--4--4---xxxx--------------|
D#|-4-4-4-4-0-0-0-0----------2-2-2-2---x--x-x--x-x--2--2---xxxx--------------|

OUTRO:

d#|-----------------------------|
A#|-----------------------------|
F#|-4--------------------4-4----|   
C#|-4---4---2-2--2---4---4-4----|
G#|-2---4---2-2--2---4---2-2----|
D#|-----2---0-0--0---2----------| 

************************************

| /   slide up
| \   slide down
| h   hammer-on
| p   pull-off
| ~   vibrato
| +   harmonic
| x   Mute note
| b   Bend
| pb  Pre-bend
| br  Bend release
| pbr Pre-bend release
| brb Bend release bend

************************************
Comments